Song name
# A B C D E F G H I J K L M N O P Q R S T U V W X Y Z

Ac Acoustics - You Shook Me All Night Long tab

Fig.1(intro)
e:-3--5--3-3--3p2--2--:-------------3--------:
b:-3--3--3---3---3-3--:-------------3--------:
g:-0--0--0---------2--:-------------0--------:
d:-----------------0--:--0---3b--0-----------:
a:--------------------:----------------------:
e:--------------------:----------------------:

e:-5--3-3---3p2----3--:
b:-3--3---3-----3--2--:
g:-0--0------------3--:
d:-----------------0--:
a:--------------------:
e:--------------------:


Fig.2(verse)
e:--3-----------------:---0--0---3---0--3--3-:
b:--3-----------------:---1--1---3---1--3--2-:
g:--0-----------------:---0--0---0---0--0--3-:
d:--0-----------------:---2--2---0---2--0--0-:
a:--2-----------------:---3--3---2---3--2----:
e:--3-----------------:----------3------3----:

(x5)
e:--3--3--3--3--3--3-----:--0--0--3--0--3--3-----:
b:--3--3--2--3--2--3-----:--1--1--3--1--3--2-----:
g:--0--0--3--0--3--0-----:--0--0--0--0--0--3-----:
d:--0--0--0--0--0--0-----:--2--2--0--2--0--0-----:
a:--2--2-----2-----2-----:--3--3--2--3--2--------:
e:--3--3-----3-----3-----:--------3-----3--------:

Fig.3(chorus)
e:--3---3--------------:--3---3--------------:
b:--3---3--------------:--2---2--------------:
g:--0---0--------0----0:--3---3--------0----0:
d:--0----------0----0--:--0---0------0----0--:
a:--2----0-2-3----2----:-------0-2-3----2----:
e:--3------------------:---------------------:




Solo
e:---------3------------------------------------:
b:------------3---6-----------------------------:
g:--5b----------------5br--3--------------------:
d:----------------------------5----3------------:
a:-------------------------------------5---3---1:
e:----------------------------------------------:

e:----------------------------------------------:
b:------3b---3--------3--5--------3--6------6--8:
g:---------------5-----------3h5--------5h7-----:
d:-1h3------------------------------------------:
a:----------------------------------------------:
e:----------------------------------------------:

e:-----------10-------------------------------15:
b:------10b-----10br--8---12b--12b-12brp10------:
g:--7--9-----------------------------------11---:
d:----------------------------------------------:
a:----------------------------------------------:
e:----------------------------------------------:

e:---15---------------------------------13----13:
b:-------18--15---13br-----15--13--14b-----14b--:
g:----------------------14----------------------:
d:----------------------------------------------:
a:----------------------------------------------:
e:----------------------------------------------:

e:----------------------------------------:
b:----14br---11-----14br---11-------------:
g:--------------12-------------/12--12----:
d:----------------------------------------:
a:----------------------------------------:
e:----------------------------------------:

e:-19b--19b--18--15--------15-------15----:
b:--------------------18b------18b--------:
g:----------------------------------------:
d:----------------------------------------:
a:----------------------------------------:
e:----------------------------------------:

e:-------------------------15----15---17br-15---:
b:-18brp15-------------/17----17----17----------:
g:---------17--15--17---------------------------:
d:----------------------------------------------:
a:----------------------------------------------:
e:----------------------------------------------:
Tap to rate this tab
 
# A B C D E F G H I J K L M N O P Q R S T U V W X Y Z