Song name
# A B C D E F G H I J K L M N O P Q R S T U V W X Y Z

Ac Dc - Stormy May Day tab

AC/DC
Stormy May Day

Use a Bottleneck on middle or little finger to play this song !


3/5 -> slide from 3 to 5
3p5 -> pull-off
~   -> vibrato
 


Intro (left hand fingers)
e|-------3-------1-------1---3------1---3------1---3-------3------------|
B|-----3-------3-------3---1------3---1------3---1---------3------------|
G|---0-------0-------0---0------0---0------0---0------------------0-----|
D|----------------------------------------------------------------0-----|
A|----------------------------------------------------------------------|
E|----------------------------------------------------------------------|



Riff 1  (Bottleneck)
1X
e|----------------------------------|--------------------------------------|
B|----------------------------------|--------------------------------------|
G|----3---3---3---3/5~--3---3/2-0~--|---3/2---3/2---3---3/5~--3-0-3-3-3-0~-|
D|--0-3-0-3-0-3-0-3/5~--3p0-3/2-0~--|-0-3/2-0-3/2-0-3p0-3/5~--3-0-3-3-3-0~-|
A|----------------------------------|--------------------------------------|
E|----------------------------------|--------------------------------------|



Basic Riff
e|----------------------------------|--------------------------------------|
B|----------------------------------|--------------------------------------|
G|----3---3---3---3/5~--3-0-3/2-0~--|---3/2---3/2---3---3/5~5/3-0-3-3-3-0~-|
D|----3-0-3-0-3-0-3/5~--3-0-3/2-0~--|-0-3/2-0-3/2-0-3p0-3/5~5/3-0-3-3-3-0~-|
A|----------------------------------|--------------------------------------|
E|----------------------------------|--------------------------------------|


Chorus Riff guitar 1
e|-------------------------|--------------------|
B|-------------------------|--------------------|
G|---9/10~~/5~~--3/2-0-----|--9/10~~/5~~--3/12~~|
D|---9/10~~/5~~0-3/2-0-----|--9/10~~/5~~0-3/12~~|
A|-------------------------|--------------------|
E|-------------------------|--------------------|

Chorus Riff guitar 2
e|-------------------------|---------------------|
B|-------------------------|---------------------|
G|---9/10~~/5~~--10/9-12~~-|--9/10~~/5~~--10-12~~|
D|---9/10~~/5~~0-10/9-12~~-|--9/10~~/5~~0-10-12~~|
A|-------------------------|---------------------|
E|-------------------------|---------------------|


Outro
e|-------------------------|-----------------------------|
B|-------------------------|-----------------------------|
G|---9/10~~/5~~--3/2-0-----|--9/10~~/5~~--3/2p0-3/2/12~~\|
D|---9/10~~/5~~--3/2-0-----|--9/10~~/5~~--3/2p0-3/2/12~~\|
A|-------------------------|-----------------------------|
E|-------------------------|-----------------------------|

e|----------------------------|-------------------------------|
B|----------------------------|-------------------------------|
G|---9/10~~/5~~--3/2p0-3/12~~\|--9/10~~/5~~--3/2p0-3/2p0-12~~-|
D|---9/10~~/5~~--3/2p0-3/12~~\|--9/10~~/5~~--3/2p0-3/2p0-12~~-|
A|----------------------------|-------------------------------|
E|----------------------------|-------------------------------|

Tabbed by Nicolas LE MANS
Tap to rate this tab
# A B C D E F G H I J K L M N O P Q R S T U V W X Y Z