Song name
# A B C D E F G H I J K L M N O P Q R S T U V W X Y Z

Ac Dc - Storm May Day tab

Help us improve GuitareTab! Take a short survey!
It is my first tab and I guess it is wrong.






Intro
e|-------3-------1-----1--0--1--0--1--0---3----|
B|-----3-------3------3--3--3--3--3--3----3----|
G|---0-------0-------0--0--0--0--0--0-----0--0-|
D|-------------------------------------------0-|
A|---------------------------------------------|
E|---------------------------------------------|



e|--------------------------------|--------------------------------------|
B|--------------------------------|--------------------------------------|
G|--------------------------------|--------------------------------------|
D|-5-8p5-8p5-8p5-8b---8p5-8/5-5~--|-5-5h8p5-5h8p5-5h8p5-8b--8/5-8-8-8-5--|
A|--------------------------------|--------------------------------------|
E|--------------------------------|--------------------------------------|

Chorus
e|---------------|----------------|
B|---------------|----------------|
G|--8b-----------|--8b------------|
D|-----8b-6b-----|-----8b-6b------|
A|-----------8b--|-----------8b---|
E|---------------|----------------|
Related for Storm May Day tab