Song name
# A B C D E F G H I J K L M N O P Q R S T U V W X Y Z

Ac Dc - Rock N Roll Dream tab

Rock N’ Roll Dream
Ac/Dc
Album: Black Ice
Tuning: Standard

Intro:
   B
e|---1-1-|----(1)---|---1-1-|-(1)--(1)-|
B|-------|-(1)------|-------|--1---(1)-|
G|--3----|-----3----|--3----|----3-----|
D|-3-—3--|--3----3--|-3—-3--|-------3--|
A|-------|----------|-------|----------|
E|-------|----------|-------|----------|

Vers 1:
Riff 1------------------|
At the middle of vers 1 a second guitar constantly
starts to play e|-1-1-1-1-1-1...|
               b|-1-1-1-1-1-1...| until the chorus.
It come and goes after 2:nd vers, listen and u’ll hear it.
e|---1-—1-1-----1-------|------1-—1-1-----1---|-----1—-1-1-----1----|
B|--1------1--1---------|-----1------1--1-----|----1------1-—1------|
G|-3—--3-3---3---3------|----3—--3-3---3---3--|---3---3-3---3----3--|
D|----3-----------3-----|-------3-----------3-|------3------------3-|
A|----------------------|---------------------|---------------------|
E|----------------------|---------------------|---------------------|
       Deep waterworld... 	Cirkle sharks...      Deep in trouble...

Bridge:
Riff 2
|---------1-|
|---------1-|
|-----------|
|-0-1---1-3-|
|-----------|
|----4-6----|
    One man down.

Vers 2:
e|---1-—1-1-----1-------|---1-—1-1-----1---|---1—-1-1-----1----|
B|--1------1--1---------|--1------1--1-----|--1------1-—1------|
G|-3—--3-3---3---3------|-3—--3-3---3---3--|-3---3-3---3----3--|
D|----3-----------3-----|----3-----------3-|----3------------3-|
A|----------------------|------------------|-------------------|
E|----------------------|------------------|-------------------|
      Pretty women...

 Bridge:	  Pre-chorus:
|---------1-|---------1-|-----------1--------|---1-|
|---------1-|---------1-|-----------1--------|--1--|
|-----------|-----------|--------------------|-----|
|-0-1---1-3-|-0-1---1-3-|---0-1---1-3--------|-3---|
|-----------|-----------|--------------------|-----|
|----4-6----|----4-6----|------4-6-----------|-----|
	    Ooohooh       Very last time...
  Chorus:
  Riff 3
  Fm  B  G#m D#	         Fm
e|------------|	        |---|
B|------------|	        |---|
G|----3-----8-|  x4	    |---|
D|-3--3--6--8-|	        |-3-|
A|-3--1—-6--6-|	        |-3-|
E|-1-----4----|	        |-1-|

Vers 3:
(Riff 1 x9, first guitar) while
Second Guitar play (Solo):
e|-----------------------|-------|-------------------------------|
B|----------------------1|-------|-------------------6/5/4-6/5/4-|
G|-----------------3(1)3-|-------|-------------------------------|
D|-----------------------|-1-3-3-|-------------------------------|
A|-----------------------|-------|-------------------------------|
E|-----------------------|-------|-------------------------------|
   ...sharks all about you...   	  ...you don’t know why.

|-6p4--------|-------------------------|--------------------8-6--|
|----4-6-6p4-|-----------------4-6-6p4-|-----------------------6-|
|------------|----------------5--------|-------------------------|
|------------|-------------------------|-------------------------|
|------------|-------------------------|-------------------------|
|------------|-------------------------|-------------------------|
	  ...warm embrace...	     ...in the haiaiard rain?

    Bridge:	Pre-shorus:
-------------------8-6/1-|----------4-----|----------11---8/--1--|
----------------4-6------|-------6-6-6----|---------(13)-(8)-(1)-|
-------------------------|----------------|----------------------|
-------------------------|----------------|----------------------|
-------------------------|----------------|----------------------|
-------------------------|----------------|----------------------|
   ...mess you found	      ...next in line.	      ...that one comes...

--------------|
-----------6b-|
----------6---|
-------6-8----|
--------------|
--------------|

Chorus:
(Riff 3 x8)
Play this at the first,
third, fifth and seventh
time during riff 3 	      Fm
e|----------------|	    e|---|
B|--4-------------|	    B|---|
G|-3—3h6-1-3-1----|	    G|---|
D|------------3-1-|	    D|-3-|
A|----------------|	    A|-3-|
E|----------------|	    E|-1-|

Vers 4:
The effect sounds like a guitar but I don’t think it is,
but in case of the “voice” sounding “round, round, round...”
lies on the note F (e|-1-|), you hear when it joins in with
the third vers.
Riff 1 x7
at x3 join
the bass line,  and then (Solo):
e|-----------|-----------------------------------------------|
B|-6-4-3-2-4-|-------4h6-6-4h6-6-4h6-4h6-6-6-4h6-6-4h6-4h6-6-|
G|-----------|-----------------------------------------------|
D|-----------|-----------------------------------------------|
A|-----------|-----------------------------------------------|
E|-----------|-----------------------------------------------|
        ...deep water

-----------------------------4---------------4-----------------|
-4h6-6-4h6-4h6-6-6-4h6-6-4h6---6-6-4h6-6-4h6---6-6-6-4h6-6-4h6-|
---------------------------------------------------------------|
---------------------------------------------------------------|
---------------------------------------------------------------|
---------------------------------------------------------------|
  ...deep water		    ...deep water

   Bridge:
---8-8-8-11-11-11-11-11-13-13-13-13-|
-4----------------------------------|
------------------------------------|
------------------------------------|
------------------------------------|
------------------------------------|

Chorus:
(Riff 3 x9)
Play this at the first,
third, fifth, seventh and 9:th
time during riff 3
		                       Fm
e|----------------|	 e|---|
B|--4-------------|	 B|---|
G|-3—3h6-1-3-1----|	 G|---|
D|------------3-1-|	 D|-3-|
A|----------------|	 A|-3-|
E|----------------|	 E|-1-|

Ending: Round n’ round n’ round n’ round...
and then tone it down during riff 1.

Order of “Rock N’ Roll Dream”

Intro
Vers 1     (riff 1 x3)
Bridge    	(riff 2)
Vers 2    	(riff 1 x3)
Bridge    	(riff 2)
Pre-chorus	(riff 2 x2)
Chorus    	(riff 3 x4)
Vers 3    	(riff 1 x7) & (solo)
Bridge    	(riff 2)    & (solo)
Pre-chorus	(riff 2 x2) & (solo)
Chorus    	(Riff 3 x8)
Vers 4    	(Riff 1 x7) & (solo)
Bridge    	(Riff 2)    & (solo)
Chorus    	(Riff 3 x9)
End       	(round n’ round + riff 1)

There you have it! My third tab, I hope this tab will
bring justice to the very great song. Thank you.
This is the third time I'm submitting this tab so I'm pretty
mad about that but have fun anyway.

Tabbed by: André S (Mr. Macrew på Björkö)
2008-10-26
Tap to rate this tab
 
# A B C D E F G H I J K L M N O P Q R S T U V W X Y Z