Song name
# A B C D E F G H I J K L M N O P Q R S T U V W X Y Z

Ac Dc - Back In Black tab

e---------------------3-0------------------
B--------------------------3-0-------------
G--5----------------------------2^3R2p0----
D--5--5-5-5--7-7-7-------------------------
A--3--5-5-5--7-7-7-------------------------
E-----3-3-3--5-5-5-------------------------



e------------------------------------------
B------------------------------------------
G--5---------------------------------------
D--5--5-5-5--7-7-7-------------------------
A--3--5-5-5--7-7-7-------------------------
E-----3-3-3--5-5-5---7-4-7-5-7-6-7-7-------


Tap to rate this tab
# A B C D E F G H I J K L M N O P Q R S T U V W X Y Z