Song name
# A B C D E F G H I J K L M N O P Q R S T U V W X Y Z

Ac Dc - Dog Eat Dog tab

Tabbed By:MACHETE-MAN                             

                               AC/DC

                            “Dog Eat Dog”



~ - HOLD
(X) – PALM MUTE 
\ - Slide
^ - Bend

Intro
E------------------------------------------/
B------------------------------------------/
G—------3----3~-------------3----3~--------/
D--3----3----1~--------3----3----1~--------/
A—-3----1--------------3----1--------------/
E—-1-------------------1-------------------/


Main Riff
E-----------------------------/
B-----------------------------/
G—------3----3-(X)----3----3--/	Play This
D--3----3----1-(X)----1----3--/	4 Times.
A—-3----1------------------1--/
E—-1--------------------------/

E-----------------------------/
B------------4-(x)----4-------/
G—-3----3----1-(x)----1----3--/	Play This
D--3----1------------------1--/	2 Times.
A—-1--------------------------/
E—----------------------------/

E-----------------------------/
B-----------------------------/
G—------3----3-(X)----3----3--/	Play This
D--3----3----1-(X)----1----3--/	2Times.
A—-3----1------------------1--/
E—-1--------------------------/

Pre-Chorus
E------------------------/
B------------------------/
G—-5--5—-5~----3--3—-3~--/
D--5--5—-5~----3--3—-3~--/
A—-3--3—-3~----1--1—-1~--/
E—-----------------------/

Chorus
E------------------------------------------/
B------------------------------------------/
G—------3----3~-------------3----3~--------/
D--3----3----1~--------3----3----1~--------/
A—-3----1--------------3----1--------------/
E—-1-------------------1-------------------/


----Main Riff----


Solo
E—-3\13^—-13^--13^-13^--15-13-11--13^--13^--13^-13^--15-13-/
B—-1\11^—-11^--11^-11^--11-11-11—-11^--11^--11^-11^--11-11-/
G—---------------------------------------------------------/
D----------------------------------------------------------/
A—---------------------------------------------------------/
E—---------------------------------------------------------/

E--6—-8^--8^--8^-8^--10-8-6—-8^--8^--8^-8^--10-8-6--/
B--6—-6^--6^--6^-6^--6--6-6—-6^--6^--6^-6^--6--6-6--/
G—--------------------------------------------------/
D---------------------------------------------------/
A—--------------------------------------------------/
E—--------------------------------------------------/

E—-3\13^—-13^--13^-13^--15-13-11--13^--13^--13^-13^--15-13-/
B—-1\11^—-11^--11^-11^--11-11-11—-11^--11^--11^-11^--11-11-/
G—---------------------------------------------------------/
D----------------------------------------------------------/
A—---------------------------------------------------------/
E—---------------------------------------------------------/

E--6—-8^--8^--8^-8^--10-8-6—-8^--8^--8^-8^--10-8-6--/
B--6—-6^--6^--6^-6^--6--6-6—-6^--6^--6^-6^--6--6-6--/
G—--------------------------------------------------/
D---------------------------------------------------/
A—--------------------------------------------------/
E—--------------------------------------------------/

E-------------------------------------/
B-------------------------------------/
G—------3-------------------3---------/
D--3----3--------------3----3---------/
A—-3----1----6^~-------3----1----6^~--/
E—-1-------------------1--------------/


----Main Riff----

----Chorus----

----Solo----

Outro
E------------------------------------------/
B------------------------------------------/
G—------3----3~-------------3----3~--------/		Play This	
D--3----3----1~--------3----3----1~--------/		9 Times.
A—-3----1--------------3----1--------------/
E—-1-------------------1-------------------/


E----------------------/
B----------------------/
G—---------------------/
D--3----------------3--/
A—-3--3-3-3-3--3-3--3--/
E—-1--1-1-1-1--1-1--1--/

Tap to rate this tab
# A B C D E F G H I J K L M N O P Q R S T U V W X Y Z