Guitaretab - guitar tabs
Song name
# A B C D E F G H I J K L M N O P Q R S T U V W X Y Z

Ac Dc - Down Payment Blues tab

AC/DC - Down payment blues
Album: powerage, 1978



 Intro:
|------------------|--------------------|-------------|------------------------|
|------------------|--------------------|-------------|------------------------|
|------------------|--2-----------------|--2----------|-----2-------2-------2--|
|-------------2-2--|--2------------2-2--|--2----------|--2--2----2--2----2--2--|
|-------------2-2--|--0------------2-2--|--0----------|--2--0----2--0----2--0--|
|-------------0-0--|---------------0-0--|-------------|--0-------0-------0-----|

|--------------------|------------------|-------------|------------------------|
|--------------------|------------------|-------------|------------------------|
|--------------------|------------------|-------------|-----2-------2-------2--|
|----2--2------------|------------------|-------------|-----2-------2-------2--|
|----2--2------------|------------------|-------------|--2--0----2--0----2--0--|
|----0--0------------|------------------|-------------|--0-------0-------0-----|

|--------------------|------------------------|--------------------|
|--------------------|------------------------|--------------------|
|--------------------|-----2-------2-------2--|--------------------|
|-------2------------|-----2-------2-------2--|-------2------------|
|----2--2------------|--2--0----2--0----2--0--|----2--2------------|
|----0--0------------|--0-------0-------0-----|----0--0------------|

|------------------------|--------------|------------------------|-------------|
|------------------------|--------------|------------------------|-------------|
|-----4-------4-------4--|--------------|-----4-------4-------4--|-------------|
|-----4-------4-------4--|-------4------|-----4-------4-------4--|-------4-----|
|--4--2----4--2----4--2--|----4--4------|--4--2----4--2----4--2--|----4--4-----|
|--2-------2-------2-----|----2--2------|--2-------2-------2-----|----2--2-----|

                                                Verse Riff:
|------------------------|--------------|------------------------|-------------|
|------------------------|--------------|--7--9----7--9----7--9--|----7--7-----|
|-----7-------7-------7--|--------------|--8--9----8--9----8--9--|----8--8-----|
|-----7-------7-------7--|-------7------|--9--9----9--9----9--9--|----9--9-----|
|--7--5----7--5----7--5--|----7--7------|--9--7----9--7----9--7--|----9--9-----|
|--5-------5-------5-----|----5--5------|--7-------7-------7-----|----7--7-----|

  shoe string...
|------------------------|--------------------|
|--5--7----5--7----5--7--|----5--5------------|
|--6--7----6--7----6--7--|----6--6------------|
|--7--7----7--7----7--7--|----7--7------------|
|--7--5----7--5----7--5--|----7--7------------|
|--5-------5-------5-----|----5--5------------|

  millionaire...
|------------------------|--------------------|
|-----2-------2-------2--|--------------------|
|--1--2----1--2----1--2--|----1--1------------|
|--2--2----2--2----2--2--|----2--2------------|
|--2--0----2--0----2--0--|----2--2------------|
|--0-------0-------0-----|----0--0------------|

Chorus:       I got holes...                    and I'm way...
|--------------------|------------------|--------------------|
|-----3--------------|------------------|--------------------|
|--2--2--------------|------------------|-----2--------------|
|--2--0--------------|------------------|--2--2--------------|
|--0-----------------|------------------|--2--0--------------|
|--------------------|------------------|--0-----------------|

                                           down payment blues
|------------------|----------------------|------------------|
|------------------|-----9-------9--------|------------------|
|------------------|--8--9----8--9--------|------------------|
|------------------|--9--9----9--9--------|------------------|
|------------------|--9--7----9--7--------|------------------|
|------------------|--7-------7-----------|------------------|

Tablature by Clemens Kurch.

AC/DC - *Down* *Payment* *Blues* _Solo_

   B E     B E     B E     B       4 Times
     ~~~~~~~~~~~~~~~~~~~~~~~~~~~~~~~~~~~~~~~~~
e|----------------------------------------------------|
b|----------------------------------------------------|
g|----------------------------------------------------|
D|-7-9------------------------------------------------|
A|----------------------------------------------------|
E|----------------------------------------------------|
[ Tab from: http://www.guitaretab.com/a/ac-dc/135.html ]
   Dsus4                           D
     Bend      Bend  ~~~~~~~~~                      ~~~~~~~~~
e|-----------------------------10---------------------|
b|-13-15-----13-15----------------10-13----10---------|
g|--------------------------------------12----10------|
D|------------------------------------------------12--|
A|----------------------------------------------------|
E|----------------------------------------------------|
   Dsus4               D
                  ~~~~~~~~~~
e|----------------------------------------------------|
b|----------------------------------------------------|
g|----------------------------------------------------|
D|-10-9-7-5-7-3-3---------------3-5-5-3---------------|
A|----------------5---------0-5---------5-------------|
E|----------------------------------------------------|
   Dsus4                           D
                        ~~~~~~      ~~~~~
e|----------------------------------------|
b|----------------------------------------|
g|----------5-7---7---5-----------7-7-----|
D|-5--3-5s7-----7---x---------7-9---------|
A|----------------------------------------|
E|----------------------------------------|
     Dsus4                D         A5
     Bend    B       B~~~~~~~~~  B~~~~~~~
e|---------------------------------------12-----------|
b|-13-15---13-15---13-15----_--15-17--------15-12--12-|
g|-----------------------------------------------14---|
D|----------------------------------------------------|
A|----------------------------------------------------|
E|----------------------------------------------------|
                                      A5      ~~~~ E5
                E5      ~~~~~~~   Bend & Release   B~~~~~~~
e|----------------------------------------------------|
b|------------------------------20-24----20-17---19-21|
g|-15-14-12-14--12------------------------------------|
D|------------14-----_14------------------------------|
A|----------------------------------------------------|
E|----------------------------------------------------|

                              B    E           B E
     Bend  Bend  R     Bend   Rel   Bend  R     B  R
e|----------------------------------------------------|
b|-19-20-20-21-21-20-20-21--21-20-20-21-21-20-20-21-19|
g|----------------------------------------------------|
D|----------------------------------------------------|
A|----------------------------------------------------|
E|----------------------------------------------------|
   B    E   B            B  E        B    E        B  E
        ~~~~~~~~  Bend                               ~~~~~~~
e|-----------------------14-17-14-16-15-14-------------|
b|-15-----------17-19---------------------17-15-14-15--|
g|----16---------------------------------------------16|
D|-----------------------------------------------------|
A|-----------------------------------------------------|
E|-----------------------------------------------------|
     Dsus4                      D           Dsus4
     Bend    B       B  ~~~~~~~           ~~~~~
e|-20-22---20-22---20-22-------20-17------------------|
b|----------------------------------20-18--------17---|
g|---------------------------------------19----16-----|
D|----------------------------------------------------|
A|----------------------------------------------------|
E|----------------------------------------------------|
                      D
     ~~~~~   B        Bend   >
e|----------------17--------17-_-|
b|-17------17-19----17-19--------|
g|-------------------------------|
D|-------------------------------|
A|-------------------------------|
E|-------------------------------|
    A5                             E5
    B       B                      ~~~~~~~~~~~~
e|-----------------0----------------------------------|
b|-------------------0--3-----------------------------|
g|-2-4-----2-4--------------3-2-0---------------------|
D|---------------------------------2------------------|
A|----------------------------------------------------|
E|----------------------------------------------------|

Outro: 1/2 Time | 1/1 Time
        A Tempo |
e|--------------.-------------------------------------|
b|--------------.-------------------------------------|
g|--9-----------.-------------------------------------|
D|--------------.--------7---------------------7------|
A|----12--------.-9---11-9-----11-9-----9---11-9---11-|
E|-----7--7-----.-7-7-7------7-7----10--7-7-7----7-7--|

e|----------------------------------------------------|
b|----------------------------------------------------|
g|----------------------------------------------------|
D|7-----------9-------7------------7-----------------7|
A|--11-9---11-7--7-11-------9---11-9----------9---11-9|
E|--7--7-7-7--------7---10--7-7-7-----7-10-11-7-7-7---|

e|----------------------------|
b|----------------------------|
g|----------------------------|
D|----------------7-----------|
A|---------9---11-9---------9-|
E|-7-10-11-7-7-7-----7-10-11--|
Related for Down Payment Blues tab
×
Best way to learn
"Down Payment Blues"