Song name
# A B C D E F G H I J K L M N O P Q R S T U V W X Y Z

Ac Dc - Landslide tab

Landslide Tab by Ac Dc, www.Ultimate-Guitar.Com

Tuning: Standard

---------------------------------|
---------------------------------|
-------------5h6---7---5h6-------|
-------7-----5-----7---5---------|
A-3-0-0---0-0----0---0-----0-0---|
---------------------------------|

-------------3---2-----------|
-------------3---3-----------|
-------5-----0---2-----------|
-------5-----0---0-----------|
-3-0-0---0-0-2-----------0-0-|
-------------3---------------|

-3----------------0----------------|
-3----------------2----------------|
-0----------------2----------------|
-0----------------2----------------|
-2----------------0----------------|
-3---------------------------------|

-------------3---2--0-|
-------------3---3--2-|
-------5-----0---2--2-|
-------5-----0---0--2-|
-3-0-0---0-0-2------0-|
-------------3--------|

-----------------------------------------|
-----------------------------------------|
-7---7---7---7-------7---7---7---7-------|
-7---5---7---5-------7---5---7---5-------|
-5---3---5---3-------5---3---5---3-------|
-----------------------------------------|

-------------------------------|
-------------------------------|
-------------------------------|
-7-----5-----7-----5-----------|
-7-----5-----7-----5-----------|
---0-0---0-0---0-0---0-0-3--0--|

---------------------------------------0---3---2-----------|
---------------------------------------2---3---3-----------|
-------------5h6---7-----5h6-----------2---0---2-----------|
-------7-----5-----7-----5-------------2---0---0-----------|
-3-0-0---0-0-----0---0-------0-0-3-0-0-0---2-----------0-0-|
-------------------------------------------3---------------|

h-hammer on
Tap to rate this tab
# A B C D E F G H I J K L M N O P Q R S T U V W X Y Z