Song name
# A B C D E F G H I J K L M N O P Q R S T U V W X Y Z

Ac Dc - Love Song tab

AC/DC - Love Song


INTRO RYTHEM : LISTEN TO SONG TO WORK THIS OUT
E--------------------------------------------------|
B--------------------------------------------------|
G--------------------------------------------------|
D---2-----4-----5-----4-----2------2----4----5-----|
A---2-----4-----5-----4-----2------2----4----5-----|
E---0-----2-----3-----2-----0------0----2----3-----|

E------------------------------------------------|---|
B------------------------------------------------|---|
G----2----4-----5-----4-----2------5----4----5---|-2-|
D----2----4-----5-----4-----2------5----4----5---|-2-|
A----0----2-----3-----2-----0------3----2----3---|-0-|
E------------------------------------------------|---|

LEAD GUITAR

E|--12----12----12----12----12-----|--14----14----14----14----14------|
B|----13----13----13----13----13---|----13----13----13----13----13----|
G|------14----14----14----14----14-|------14----14----14----14----14--|
D|---------------------------------|----------------------------------|
A|---------------------------------|----------------------------------|
E|---------------------------------|----------------------------------|

E|--15----15----15----15----15-----|--14----14----14----14----14------|
B|----13----13----13----13----13---|----13----13----13----13----13----|
G|------14----14----14----14----14-|------14----14----14----14----14--|
D|---------------------------------|----------------------------------|
A|---------------------------------|----------------------------------|
E|---------------------------------|----------------------------------|
REPEAT PREVIOUS 2 BARS 1 MORE TIME

E|--15----15----15----15----15-----|--17----17----17----17----17------|
B|----16----16----16----16----16---|----16----16----16----16----16----|
G|------17----17----17----17----17-|------17----17----17----17----17--|
D|---------------------------------|----------------------------------|
A|---------------------------------|----------------------------------|
E|---------------------------------|----------------------------------|

E|--18----18----18----18----18-----|--17----17----17----17----17------|
B|----16----16----16----16----16---|----16----16----16----16----16----|
G|------17----17----17----17----17-|------17----17----17----17----17--|
D|---------------------------------|----------------------------------|
A|---------------------------------|----------------------------------|
E|---------------------------------|----------------------------------|

RIFF 2 BOTTEM 
     *E TAB INDICATES LEAD GUITAR
     *TRILL/HAMMER/PULLOFF
E*--8-5-0---8-5-0--|   |*--7-4-0---7-4-0--|   
B|-----------------|   |--2---------2-----|
G|---1--1---0--1---|X2 |--2--2---0--2-----|X2
D|---2--2---0--2---|   |--2--2---0--2-----|
A|---2--2---0--2---|   |--0--0---0--0-----|
E|---0---------0---|   |------------------|
                   
E*--8-5-0---8-5-0--|   |*--10-7-0---10-7-0-|   
B|-----------------|   |--3--3------3------|
G|---1--1---0--1---|X2 |--2--2---0--2------|X2
D|---2--2---0--2---|   |--0--0---0--0------|
A|---2--2---0--2---|   |-------------------|
E|---0---------0---|   |-------------------| END ON A STRUMMED C NOTE!

MAIN RIFF
    C
Guitar 1
E-------------0----------|-----------------|-----------------------|---------------|
B-----1---3-------3---1--|--0---1----3-----|---1---0-------0---1---|---------------|
G------------------------|-----------------|-----------2-----------|---0---2---4---|
D------------------------|-----------------|-----------------------|---------------|REPEAT
A------------------------|-----------------|-----------------------|---------------|
E------------------------|-----------------|-----------------------|---------------|
Guitar 2
E------------------------|--2--------------|-----------------------|---------------|
B-1---1---3---5---3---1--|--3---1---3------|---1---0-------0---1---|---0-------3---|
G-0-------------5--------|--4-----------6--|-----2-----2---------0-|---0---2---4---|
D-2----------------------|--------------7--|-----------------------|-0---0---0-----|REPEAT
A-3----------------------|--2-----------7--|-----------------------|---------------|
E------------------------|--------------5--|-----------------------|---------------|

   CHORUS
	E|--5--------------3------------------5--------------3--|
	B|--5--------------3------------------5--------------3--|
	G|--6--------------4------------------6--------------6--|
	D|--7------------5-5----------------5-7------------5-5--|
	A|--7--------5-7---5------------5-7---7--------5-7---5--|
	E|--5--------------3------------------5--------------3--|
SOLO
E|---------------------------------------------------------------------------------------------|
B|-------------------------------------9b-(10)-10-9-7-7-8~~~~~-----13~~~13---------13---15b---|
G|-----9b----9-7-5-4-2-0-0^2^0-----------------------9--------------------14-12-14---12--------|
D|---------------------------------------------------------------------------------------------|
A|---------------------------------------------------------------------------------------------|
E|---------------------------------------------------------------------------------------------|
                                                             x4
E|---------------15b-17br15--------17br15-------|-17br15-------|-17--15------------------------|
B|-17~~~-17^15^14-----------17~~~---------17~~~-|--------17~~~~|--------17-15-17~~~17-19-20-19-17
G|----------------------------------------------|--------------|-------------------------------|
D|----------------------------------------------|--------------|-------------------------------|
A|----------------------------------------------|--------------|-------------------------------|
E|----------------------------------------------|--------------|-------------------------------|

SOLO 2
E|--------------------------------------------------------------------------15------17-15---17-17
B|-----------------------------------------------------------15~15~15~~~------17---------17---|
G|-9^7---9~~~~--------------------14-12----14-14~~-14-x-12~~-----------------------------------|
D|-----9---------7--9--5~~~~------------14-----------------------------------------------------|
A|---------------------------------------------------------------------------------------------|
E|---------------------------------------------------------------------------------------------|
                                                                                           fade
E|-17-15-17--17-17~17~-17^15-16-22-22---22-20-17----------------17-17--15-12-------------------|
B|-----------------------------------------------20-17----17-20--------------15-12-------------|
G|-----------------------------------------------------19--------------------------14-12-------|
D|---------------------------------------------------------------------------------------14----|
A|------------------------------------------------------------------------------------------12-|
E|---------------------------------------------------------------------------------------------|
Tap to rate this tab
# A B C D E F G H I J K L M N O P Q R S T U V W X Y Z