Guitaretab - guitar tabs
Song name
# A B C D E F G H I J K L M N O P Q R S T U V W X Y Z
Home / A / Ac Dc / Ride On tab

Ac Dc - Ride On tab

AC/DC - Ride On (Solo)
Standard Tuning

|-----------------------------------------------------------|
|-16b18-------16b17----------------13-15b16------------\\\\\|
|-------------------17-17~~~~~\/14--------------------------|
|-----------------------------------------------------------|
|-----------------------------------------------------------|
|-----------------------------------------------------------|

|-----------8-----------------------------------------------|
|-11b13-------8-11-------8----------------------------------|
|------------------10b12---x-10b12r10-p8-------10b12r10-p8~~|
|----------------------------------------10~----------------|
|-----------------------------------------------------------|
|-----------------------------------------------------------|

|--------------------------------------------8------------|
|---------8-11-------8-11-------8h11-------8---8-11b13----|
|-10b12--------10b12------10b12------10b12----------------|
|---------------------------------------------------------|
|---------------------------------------------------------|
|---------------------------------------------------------|

|-8------------------------------------------------------8-10-10b11r10b11---|
|---8h11p8-------8--------------------------------8-10-8--------------------|
|----------10b12---10p8----10----8~~~-------5-8/9---------------------------|
|-----------------------10----10--------/7----------------------------------|
|---------------------------------------------------------------------------|
|---------------------------------------------------------------------------|

|-10b12r10-p8---10p8-------------------15b18--r15-14----------------------|
|--------------------------13-13-13~-----------------16-15-13----16p13~~~\|
|----------------------/14------------------------------------14----------|
|-------------------------------------------------------------------------|
|-------------------------------------------------------------------------|
|-------------------------------------------------------------------------|

|-----------------------------------------------------------------------------18---------|
|-16b17-----16b17-16b17-16b17-16b17-16b17------------16b17----18-16-18--18b20----18b20--~|
|-----------------------------------------17-17~~~~~-------17----------------------------|
|----------------------------------------------------------------------------------------|
|----------------------------------------------------------------------------------------|
|----------------------------------------------------------------------------------------|
[ Tab from: http://www.guitaretab.com/a/ac-dc/159.html ]
|-17--18--17-15-17-15----15------------------------------------------|
|---------------------18----18----16p15------------------------------|
|------------------------------18-------17----17----17~~~~~------\\\\|
|------------------------------------------17----17------------------|
|--------------------------------------------------------------------|
|--------------------------------------------------------------------|

|------------------------------------------------------8----------------------|
|----------------------------------------------------8---8*-8-----------------|
|-8b10----------8*--------8----10----8----10----8-10----------10/12-x-12/10~~~|
|---------8---8----8-8-10---10----10---10----10-------------------------------|
|-----------------------------------------------------------------------------|
|-----------------------------------------------------------------------------|

|----------8----------------------------------------------------------------|
|-11b13------8-11-8-------8-------------------------------------------------|
|-------------------10b12---10pb12r10-p8----10----8b------------------------|
|----------------------------------------10----10------10-10~~~~~~~~~~~~~\\\|
|---------------------------------------------------------------------------|
|---------------------------------------------------------------------------|

|------------------------8-10b--10b11r10-p8~~~\\\|
|-------------------8-11-------------------------|
|-------5--7--8--9-------------------------------|
|-/7---------------------------------------------|
|------------------------------------------------|
|------------------------------------------------|

|-----13-----------13--------------------------------------|
|-/15----16b18~~~-----13-16-------16-----------------------|
|---------------------------15b17----17---15b17r15-p13-----|
|------------------------------------------------------15~~|
|----------------------------------------------------------|
|----------------------------------------------------------|

|-----------------17----------14-17----------------------|
|--------17b19-------14-17b19-------14-17b19--17pb19~~~\\|
|-----14-------------------------------------------------|
|-/17----------------------------------------------------|
|--------------------------------------------------------|
|--------------------------------------------------------|

|------------------------------------------------------18---------18----|
|-18b20---18b20---18b20------20-18-----------------------18-15-18----18-|
|----------------------------------19h22p19-19-19-22-19-----------------|
|-----------------------------------------------------------------------|
|-----------------------------------------------------------------------|
|-----------------------------------------------------------------------|

|-------------------|
|-18b20---18b20~~~~~|
|-------------------|
|-------------------|
|-------------------|
|-------------------|
Related for Ride On tab
Ride On chords by Ac Dc