Song name
# A B C D E F G H I J K L M N O P Q R S T U V W X Y Z

Ac Dc - Shake Your Foundations tab

----------------------------------------------------------------------------
                       AC/DC - Shake your Foundations
----------------------------------------------------------------------------

verse:

|----------------------------------------------------------|
|-8-x-8-x-10-x-x-8-x-10-x-x-10-x-x-6~-0-5-8-0-6~-0-5-8-x-x-|
|-7-x-7-x-7--x-x-7-x-7--x-x-7--x-x-7~-0-5-7-0-7~-0-5-7-x-x-| repeat this 
|----------------------------------------------------------| until verse is
|----------------------------------------------------------| over.
|----------------------------------------------------------| 

chorus:

|---------------------------------------|
|-3-3-3-3--6~-0-5-8-8-3-3-3-3--6~-0-5-8-|
|-2-2-0-0--7~-0-5-7-7-2-2-0-0--7~-0-5-7-|
|-0-0-0-0-----------------0-0-----------|
|-------x-------------------x-----------| x2
|-------3-------------------3-----------|

guitar solo:

|-----------------------------------------|
|-10---8----7---10---8----7---------------|
|-12b--10b--9b--12b--10b--9b--3~-5~-3~-5~-|
|-----------------------------------------|
|-----------------------------------------|
|-----------------------------------------|

|-----------------------------------------------------|
|-10---8----7---17---15---14---15--15--15--15--13-20~-|
|-12b--10b--9b--20b--18b--17b--15b-15--15b-15--13-20~-|
|-----------------------------------------------------|
|-----------------------------------------------------|
|-----------------------------------------------------|
Tap to rate this tab
# A B C D E F G H I J K L M N O P Q R S T U V W X Y Z