Song name
# A B C D E F G H I J K L M N O P Q R S T U V W X Y Z

Ac Dc - Long Way To The Top tab

Help us improve GuitareTab! Take a short survey!
hi im marlon! im only 12 and this is my 1st tab. please dont be so harsh!

        PS:the solo isn't here but i got the bagpipe part! sorry

intro x? and riff
|------------------------------------|
|------------------------------------|
|------------------------------------|
|--7-7-x-x-7-x-7-7-x-x-7-x-7-7-x-x-7-|
|--7-7-x-x-7-x-7-7-x-x-7-x-7-7-x-x-7-|
|--5-5-x-x-5-x-5-5-x-x-5-x-5-5-x-x-5-|


|--------------------------|
|--------------------------|
|--------------------------|
|--7-7-x-x-7-x-7-7-x-x-7-x-|
|--7-7-x-x-7-x-7-7-x-x-7-x-|
|--5-5-x-x-5-x-5-5-x-x-5-x-|
Ridi' down the highway
|--------------------------|
|--------------------------|
|--------------------------|
|--7-7-x-x-7-x-7-7-x-x-7-x-|
|--7-7-x-x-7-x-7-7-x-x-7-x-|
|--5-5-x-x-5-x-5-5-x-x-5-x-|
Goin' to a show
|--------------------------|
|--------------------------|
|--------------------------|
|--7-7-x-x-7-x-7-7-x-x-7-x-|
|--7-7-x-x-7-x-7-7-x-x-7-x-|
|--5-5-x-x-5-x-5-5-x-x-5-x-|
Stop in all the byways
|--------------------------|
|--------------------------|
|--------------------------|
|--7-7-x-x-7-x-7-7-x-x-7-x-|
|--7-7-x-x-7-x-7-7-x-x-7-x-|
|--5-5-x-x-5-x-5-5-x-x-5-x-|
Playin' rock 'n' roll
|--------------------------|
|--------------------------|
|--------------------------|
|--7-7-x-x-7-x-7-7-x-x-7-x-|
|--7-7-x-x-7-x-7-7-x-x-7-x-|
|--5-5-x-x-5-x-5-5-x-x-5-x-|
Gettin' robbed
|--------------------------|
|--------------------------|
|--------------------------|
|--7-7-x-x-7-x-7-7-x-x-7-x-|
|--7-7-x-x-7-x-7-7-x-x-7-x-|
|--5-5-x-x-5-x-5-5-x-x-5-x-|
Gettin' stoned
|--------------------------|
|--------------------------|
|--------------------------|
|--7-7-x-x-7-x-7-7-x-x-7-x-|
|--7-7-x-x-7-x-7-7-x-x-7-x-|
|--5-5-x-x-5-x-5-5-x-x-5-x-|
Gettin' beat up
|--------------------------|
|--------------------------|
|--------------------------|
|--7-7-x-x-7-x-7-7-x-x-7-x-|
|--7-7-x-x-7-x-7-7-x-x-7-x-|
|--5-5-x-x-5-x-5-5-x-x-5-x-|
Broken boned
|--------------------------|
|--------------------------|
|--------------------------|
|--7-7-x-x-7-x-7-7-x-x-7-x-|
|--7-7-x-x-7-x-7-7-x-x-7-x-|
|--5-5-x-x-5-x-5-5-x-x-5-x-|
Gettin' had
|--------------------------|
|--------------------------|
|--------------------------|
|--7-7-x-x-7-x-7-7-x-x-7-x-|
|--7-7-x-x-7-x-7-7-x-x-7-x-|
|--5-5-x-x-5-x-5-5-x-x-5-x-|
Gettin' took
|--------------------------|
|--------------------------|
|--------------------------|
|--7-7-x-x-7-x-7-7-x-x-7-x-|
|--7-7-x-x-7-x-7-7-x-x-7-x-|
|--5-5-x-x-5-x-5-5-x-x-5-x-|
I tell you folks
|--------------------------|
|--------------------------|
|--------------------------|
|--7-7-x-x-7-x-7-7-x-x-7-x-|
|--7-7-x-x-7-x-7-7-x-x-7-x-|
|--5-5-x-x-5-x-5-5-x-x-5-x-|
It's harder than it looks

Chorus!
|--------------------------------------------|---------------------|
|--------------------------------------------|---------------------|
|----------------------------------7---------|---------------------|
|------7----------------5----------7---------|7-7-x-x-7-x-7-7-x-x-7|
|------7----------------5----------5---------|7-7-x-x-7-x-7-7-x-x-7|
|------5----------------3--------------------|5-5-x-x-5-x-5-5-x-x-5|
It's a long way to the top if you wanna rock 'n' roll
|--------------------------------------------|---------------------|
|--------------------------------------------|---------------------|
|----------------------------------7---------|---------------------|
|------7----------------5----------7---------|7-7-x-x-7-x-7-7-x-x-7|
|------7----------------5----------5---------|7-7-x-x-7-x-7-7-x-x-7|
|------5----------------3--------------------|5-5-x-x-5-x-5-5-x-x-5|
It's a long way to the top if you wanna rock 'n' roll
|------------------------------------------------------|
|------------------------------------------------------|
|--------------------------------------------7-7-7-~~~-|
|---7-~~~~-----------------------------------7-7-7-~~~-|  <-keep ringing
|---7-~~~~-----------------------------------5-5-5-~-~-|
|---5-~~~~---------------------------------------------|
If you think it's easy doin' one night stands
Try playin' in a rock roll band    
|-----------------------------------------------------------|
|-----------------------------------------------------------|
|----------------------7-7-7-7-7-7-7------------------------|
|------5-5-5-5-5-------7-7-7-7-7-7-7----7-7-x-x-7-x-7-7-x-x-|
|------5-5-5-5-5-------5-5-5-5-5-5-5----7-7-x-x-7-x-7-7-x-x-|
|------3-3-3-3-3------------------------5-5-x-x-5-x-5-5-x-x-|
It's a long way to the top if you wanna rock 'n' roll

        bag pipe part da daaaaa, dadada daaaaa.

guitar:
|--------7-7-|
|--------7-7-|
|-----6h7----|
|------------|
|------------|
|------------|

after that....
|------------------------------|
|------------------------------|
|-------------7-7-7-7-7-7-7-7--|    <--- do that twice!!!
|--5-5-5-5-5--7-7-7-7-7-7-7-7--|
|--5-5-5-5-5--5-5-5-5-5-5-5-5--|
|--3-3-3-3-3-------------------| 

then to riff twice

|--------------------------|
|--------------------------|
|--------------------------|
|--7-7-x-x-7-x-7-7-x-x-7-x-|
|--7-7-x-x-7-x-7-7-x-x-7-x-|
|--5-5-x-x-5-x-5-5-x-x-5-x-|
Hotel motel
|--------------------------|
|--------------------------|
|--------------------------|
|--7-7-x-x-7-x-7-7-x-x-7-x-|
|--7-7-x-x-7-x-7-7-x-x-7-x-|
|--5-5-x-x-5-x-5-5-x-x-5-x-|
Make you wanna cry
|--------------------------|
|--------------------------|
|--------------------------|
|--7-7-x-x-7-x-7-7-x-x-7-x-|
|--7-7-x-x-7-x-7-7-x-x-7-x-|
|--5-5-x-x-5-x-5-5-x-x-5-x-|
Lady do the hard sell
|--------------------------|
|--------------------------|
|--------------------------|
|--7-7-x-x-7-x-7-7-x-x-7-x-|
|--7-7-x-x-7-x-7-7-x-x-7-x-|
|--5-5-x-x-5-x-5-5-x-x-5-x-|
Know the reason why
|--------------------------|
|--------------------------|
|--------------------------|
|--7-7-x-x-7-x-7-7-x-x-7-x-|
|--7-7-x-x-7-x-7-7-x-x-7-x-|
|--5-5-x-x-5-x-5-5-x-x-5-x-|
Gettin' old
|--------------------------|
|--------------------------|
|--------------------------|
|--7-7-x-x-7-x-7-7-x-x-7-x-|
|--7-7-x-x-7-x-7-7-x-x-7-x-|
|--5-5-x-x-5-x-5-5-x-x-5-x-|
Gettin' grey
|--------------------------|
|--------------------------|
|--------------------------|
|--7-7-x-x-7-x-7-7-x-x-7-x-|
|--7-7-x-x-7-x-7-7-x-x-7-x-|
|--5-5-x-x-5-x-5-5-x-x-5-x-|
Gettin' ripped off
|--------------------------|
|--------------------------|
|--------------------------|
|--7-7-x-x-7-x-7-7-x-x-7-x-|
|--7-7-x-x-7-x-7-7-x-x-7-x-|
|--5-5-x-x-5-x-5-5-x-x-5-x-|
Under-paid
|--------------------------|
|--------------------------|
|--------------------------|
|--7-7-x-x-7-x-7-7-x-x-7-x-|
|--7-7-x-x-7-x-7-7-x-x-7-x-|
|--5-5-x-x-5-x-5-5-x-x-5-x-|
Gettin' sold
|--------------------------|
|--------------------------|
|--------------------------|
|--7-7-x-x-7-x-7-7-x-x-7-x-|
|--7-7-x-x-7-x-7-7-x-x-7-x-|
|--5-5-x-x-5-x-5-5-x-x-5-x-|
Second hand
|--------------------------|
|--------------------------|
|--------------------------|
|--7-7-x-x-7-x-7-7-x-x-7-x-|
|--7-7-x-x-7-x-7-7-x-x-7-x-|
|--5-5-x-x-5-x-5-5-x-x-5-x-|
That's how it goes
|--------------------------|
|--------------------------|
|--------------------------|
|--7-7-x-x-7-x-7-7-x-x-7-x-|
|--7-7-x-x-7-x-7-7-x-x-7-x-|
|--5-5-x-x-5-x-5-5-x-x-5-x-|
Playin' in a band

|--------------------------------------------|---------------------|
|--------------------------------------------|---------------------|
|----------------------------------7---------|---------------------|
|------7----------------5----------7---------|7-7-x-x-7-x-7-7-x-x-7|
|------7----------------5----------5---------|7-7-x-x-7-x-7-7-x-x-7|
|------5----------------3--------------------|5-5-x-x-5-x-5-5-x-x-5|
It's a long way to the top if you wanna rock 'n' roll
|--------------------------------------------|---------------------|
|--------------------------------------------|---------------------|
|----------------------------------7---------|---------------------|
|------7----------------5----------7---------|7-7-x-x-7-x-7-7-x-x-7|
|------7----------------5----------5---------|7-7-x-x-7-x-7-7-x-x-7|
|------5----------------3--------------------|5-5-x-x-5-x-5-5-x-x-5|
It's a long way to the top if you wanna rock 'n' roll
|------------------------------------------------------|
|------------------------------------------------------|
|--------------------------------------------7-7-7-~~~-|
|---7-~~~~-----------------------------------7-7-7-~~~-|  <-keep ringing
|---7-~~~~-----------------------------------5-5-5-~-~-|
|---5-~~~~---------------------------------------------|
If you wanna be a star of stage and screen
Look out it's rough and mean
|-----------------------------------------------------------|
|-----------------------------------------------------------|
|----------------------7-7-7-7-7-7-7------------------------|
|------5-5-5-5-5-------7-7-7-7-7-7-7----7-7-x-x-7-x-7-7-x-x-|
|------5-5-5-5-5-------5-5-5-5-5-5-5----7-7-x-x-7-x-7-7-x-x-|
|------3-3-3-3-3------------------------5-5-x-x-5-x-5-5-x-x-|
It's a long way to the top if you wanna rock 'n' roll


|-----------------------------------------------------------|
|-----------------------------------------------------------|
|----------------------7-7-7-7-7-7-7------------------------|
|------5-5-5-5-5-------7-7-7-7-7-7-7----7-7-x-x-7-x-7-7-x-x-|
|------5-5-5-5-5-------5-5-5-5-5-5-5----7-7-x-x-7-x-7-7-x-x-|
|------3-3-3-3-3------------------------5-5-x-x-5-x-5-5-x-x-|
It's a long way to the top if you wanna rock 'n' roll
|-----------------------------------------------------------|
|-----------------------------------------------------------|
|----------------------7-7-7-7-7-7-7------------------------|
|------5-5-5-5-5-------7-7-7-7-7-7-7----7-7-x-x-7-x-7-7-x-x-|
|------5-5-5-5-5-------5-5-5-5-5-5-5----7-7-x-x-7-x-7-7-x-x-|
|------3-3-3-3-3------------------------5-5-x-x-5-x-5-5-x-x-|
It's a long way to the top if you wanna rock 'n' roll
|-----------------------------------------------------------|
|-----------------------------------------------------------|
|----------------------7-7-7-7-7-7-7------------------------|
|------5-5-5-5-5-------7-7-7-7-7-7-7----7-7-x-x-7-x-7-7-x-x-|
|------5-5-5-5-5-------5-5-5-5-5-5-5----7-7-x-x-7-x-7-7-x-x-|
|------3-3-3-3-3------------------------5-5-x-x-5-x-5-5-x-x-|
It's a long way to the top if you wanna rock 'n' roll



|--------------------------|
|--------------------------|
|--------------------------|
|--7-7-x-x-7-x-7-7-x-x-7-x-|
|--7-7-x-x-7-x-7-7-x-x-7-x-|
|--5-5-x-x-5-x-5-5-x-x-5-x-|
Well it's a long way
|--------------------------|
|--------------------------|
|--------------------------|
|--7-7-x-x-7-x-7-7-x-x-7-x-|
|--7-7-x-x-7-x-7-7-x-x-7-x-|
|--5-5-x-x-5-x-5-5-x-x-5-x-|
It's a long way, you should've told me
|--------------------------|
|--------------------------|
|--------------------------|
|--7-7-x-x-7-x-7-7-x-x-7-x-|
|--7-7-x-x-7-x-7-7-x-x-7-x-|
|--5-5-x-x-5-x-5-5-x-x-5-x-|
It's a long way, such a long way 

|--------------------------|
|--------------------------|
|--------------------------|
|--7-7-x-x-7-x-7-7-x-x-7-x-|
|--7-7-x-x-7-x-7-7-x-x-7-x-|
|--5-5-x-x-5-x-5-5-x-x-5-x-|

|--------------------------|
|--------------------------|
|--------------------------|
|--7-7-x-x-7-x-7-7-x-x-7-x-|
|--7-7-x-x-7-x-7-7-x-x-7-x-|
|--5-5-x-x-5-x-5-5-x-x-5-x-|




FINISHED!
Related for Long Way To The Top tab