Song name
# A B C D E F G H I J K L M N O P Q R S T U V W X Y Z

Ac Dc - Get It Hot tab

     Ok, well this is my very first tab and well, i hope it goes well. please rate on 
good it is, and how many mistakes there are, if there is any.

|-------------------------------------7------------7-----------------------|
|---------10--------------------------7-------10---7---9-----7b---------7--|
|------9b[11]b9------------------b11-------9b[11]------9-----7b---------7--|
|------------------------------------------------------------------9-------|
|--------------------------------------------------------------------------|
|--------------------------------------------------------------------------|

 TRUST ME this solo is definitely NOT the hardest solo there is.

|--------------------------------------------------------------7-----------|
|----7----7--------7----7---------7----------------------------------------|
|----7----7--------7----7---------7---9b-----------------[11]--------9b----|
|-----------8\9-------------9----------------------------------------------|
|--------------------------------------------------------------------------|
|--------------------------------------------------------------------------|

 this solo, is not very long.

|-------------7-------------------7-----------------10b------[11]----------|
|-------------7-------------------7-------------7--------------------------|
|----b[11]---------9b----[11]--------9b--[11]------------------------------|
|--------------------------------------------------------------------------|
|--------------------------------------------------------------------------|
|--------------------------------------------------------------------------|

sorry, couln't fit whole bar on there........

|----7--------------7---------------7--------------------------------------|
|----------10-------------9---------7------9b----10r-----------------------|
|------------------------------------------9b----10r-----------------------|
|--------------------------------------------------------------------------|
|--------------------------------------------------------------------------|
|--------------------------------------------------------------------------|

|--------------------------------------------------------------------------|
|----9v---------7------------9----7-----------------9b----------[10]-------|
|----9v---------7------------9----7-----------------9b----------[11]-------|
|----------------------9--------------------9------------------------------|
|--------------------------------------------------------------------------|
|--------------------------------------------------------------------------|

sorry, some of the guitar solo goes into the chorus. So, i'll update this tab later.
Tap to rate this tab
# A B C D E F G H I J K L M N O P Q R S T U V W X Y Z