Song name
# A B C D E F G H I J K L M N O P Q R S T U V W X Y Z

Ac Dc - You Shook Me All Night Long Acoustic chords

Highlighted       Show chord diagrams
C G D 
0 3 2
1 0 3
0 0 2
2 0 0
3 2 0
0 3 0

Intro
G C C G C G D
-3~----0-0-3-0-3-2---------------|
-0~----1-1-0-1-0-3---------------|
-0~----0-0-0-0-0-2---------------|
-0~----2-2-0-2-0-0---------------|
-2~----3-3-2-3-2-0---------------|
-3~----0-0-3-0-3-0---------------|

Verse
G G D G D G
-3-3-2-3-2-3--x-x-x-------------|
-0-0-3-0-3-0--x-x-x-------------|
-0-0-2-0-2-0--x-x-x-------------|
-0-0-0-0-0-0--x-x-x-------------|
-2-2-0-2-0-2--x-x-x-------------|
-3-3-0-3-0-3--x-x-x-------------|

C C G C G D
-0-0-3-0-3-2--x-x-x-----------|
-1-1-0-1-0-3--x-x-x-----------|
-0-0-0-0-0-2--x-x-x-----------|
-2-2-0-2-0-0--x-x-x-----------|
-3-3-2-3-2-0--x-x-x-----------|
-0-0-3-0-3-0--x-x-x-----------|

Before Chords
G G D G D G
-3-3-2-3-2-3-----------------|
-0-0-3-0-3-0-----------------|
-0-0-2-0-2-0-----------------|
-0-0-0-0-0-0-----------------|
-2-2-0-2-0-2-----------------|
-3-3-0-3-0-3-----------------|

C C G C G D
-0-0-3-0-3-2-2-2-------------|
-1-1-0-1-0-3-3-3-------------|
-0-0-0-0-0-2-3-2-------------|
-2-2-0-2-0-0-0-0-------------|
-3-3-2-3-2-0-0-0-------------|
-0-0-3-0-3-0-0-0-------------|

Working On Chords...
Tap to rate this tab
# A B C D E F G H I J K L M N O P Q R S T U V W X Y Z