Song name
# A B C D E F G H I J K L M N O P Q R S T U V W X Y Z

Ac Dc - You Shook Me All Night Long tab

This shouldn't be to hard, I learned it fast.
If you have any sujestions, email me at;
the_who_rocks13@hotmail.com
GOOD LUCK AND ENJOY!

E------------3-----------------------------------------------]
G--------------3-6-------------------------------------------]
B---5b7------------5b7---3----5---------------------3--------]
D--------------------------5-----5-3-------------------5-----]
A---------------------------5-------------5-3--1-------------]
E------------------------------------------------3-----------]

E----------------------------------------10------------------]
G--------------6-6-------8-8-----8-10b12----12b10-8----------]
B--------3/7-------7/9-------9-------------------------------]
D---5--------------------------------------------------------]
A------------------------------------------------------------]
E------------------------------------------------------------]

E------------------------------------------------------------]
G----11b1310b12--8---8-------18b(18)--15--------------------]
B-------------------9---------------------15-18--------------]
D-------------------------------------------------17b19--15--]
A------------------------------------------------------------]
E------------------------------------------------------------]

E------------------------------------------------------]
G--------------------18---------18-------------17--15--]
B------17--15-17b19------17b19-----17b19---15--17--15--]
D--17--------------------------------------------------]
A------------------------------------------------------]
E------------------------------------------------------]

E--------------18b2018b1917b19p15---17-----15----------15--]
G-----15--15------------------------------17------18b20------]
B-17--15-----------------------------------------------------]
D-17---------------------------------------------------------]
A------------------------------------------------------------]
E------------------------------------------------------------]

E-------------------------------15-----15(15)17b18--15------]
G--18-------------------15/17------17------------------------]
B-----17b18p15-17/19----------------------------------------]
D------------------------------------------------------------]
A------------------------------------------------------------]
E------------------------------------------------------------]
Tap to rate this tab
 
# A B C D E F G H I J K L M N O P Q R S T U V W X Y Z