Song name
# A B C D E F G H I J K L M N O P Q R S T U V W X Y Z

Ac Dc - Shes Got The Jack tab

-------------------------------------------------------------------------------
			     THE JACK - AC/DC
-------------------------------------------------------------------------------
Tabbed by: georgemcgrady
Email: biscuithouse@hotmail.co.uk

Tuning: Standard -E-A-D-G-B-E-

e|---------------------------------------------------------------------------|
B|---------------------------------------------------------------------------|
G|---------------------------------------------------------------------------|
D|---------------------------------------------------------------------------|
A|--9--9--11--12----7--7--9--10---X3-----2--2--4--5----7-8-9----9999999/-----|
E|--7--7--7---7-----5--5--5--5-----------0--0--0--0----5-6-7----7777777/-----|

e|---------------------------------------------------------------------------|
B|---------------------------------------------------------------------------|
G|---------------------------------------------------------------------------|
D|----------------------2--2--4--5----X4---------------444444444444-2222222--|
A|--2--2--4--5----X4----0--0--0--0---------2--2--4--5--222222222222-0000000--|
E|--0--0--0--0-----------------------------0--0--0--0------------------------|

(the solo is in the key of E Major and angus uses the E Major      pentatonic scale) (he 
improvises on live performances)

| /  slide up
| \  slide down
| h  hammer-on
| p  pull-off
| ~  vibrato
| +  harmonic
| x  Mute note
===============================================================================
Tap to rate this tab
# A B C D E F G H I J K L M N O P Q R S T U V W X Y Z