Song name
# A B C D E F G H I J K L M N O P Q R S T U V W X Y Z

Ac Dc - Long Way To The Top tab

Long way to top
Angus
 
intro:   PM|----|
 ------------------------|
 ------------------------|
 ---0h2--2--------2------|
 ---0h2--2--------2------|
 ---0-0--0--0--0--0------|
 ------------------------|
 rythem fill:
 --------------------|
 --------------------|
 ------0---2---------|
 -0h2------2---------|
 ----------0---------|
 --------------------|


 chorus:              PM|----|
 ------3---2---------------------|
 ------3---3---------------------|
 --2---0---2--2--0h2--2--------2-|
 --2---0---0--2--0h2--2--------2-|
 --0----------0--0-0--0--0--0--0-|
 ------3-------------------------|

 Guitar solo:
 ------7--7--------|
 ------------------|
 --7h8-------------|
 ------------------|x4
 ------------------|
 ------------------|

 ------------------------------------|
 --15^17-15^16-12-14----12-----12----|
 --------------------13-----13-------|
 ------------------------------------|
 ------------------------------------|
 ------------------------------------|

 ------------------------19-17-----------------|
 --17^19-15-17^19-17^19-------19-17------------|
 ----------------------------------19P18-16----|
 ----------------------------------------------|
 ----------------------------------------------|
 ----------------------------------------------|

 ----------------------17----------------19------------------|
 --15-15--15-15---17^19---17^19-15-17^19---19-22^24----------|
 -------16-----16-----------------------------------11~4-----|
 ------------------------------------------------------------|
 ------------------------------------------------------------|
 ------------------------------------------------------------|

the ending is the main riff in the verse
Tap to rate this tab
# A B C D E F G H I J K L M N O P Q R S T U V W X Y Z