Song name
# A B C D E F G H I J K L M N O P Q R S T U V W X Y Z

Ac Dc - Fling Thing tab

h = hammer-on
p = pull-off
s = slide
~ = vibrato

I have no idea what the tuning is for this song, I just tuned my guitar to the
first chord that's played.

(Rhythm Guitar)

|-----|
|--3--|
|--0--|
|--0--|
|-----|
|--3--|

(Lead Guitar)

Riff 1
|------------------------------------------------------|
|------------------------------------------------------|
|--4p0-0-2p0-0-4p0-0-2p0-0-4p0-0-2p0-0-----0-----------|
|----------------------------------------0h2---2p0-----|
|------------------------------------------------------|
|------------------------------------------------------|

Riff 2
|------------------------------------------------------|
|--3p0-0-1p0-0-3p0-0-1p0-0-3p0-0-1p0-0-----------------|
|--4p0-0-2p0-0-4p0-0-2p0-0-4p0-0-2p0-0-----0-----------|
|----------------------------------------0h2---2p0-0---|
|------------------------------------------------------|
|------------------------------------------------------|

|--------------------------------------------------|
|--3p0-0-1p0-0-3p0-0-1p0-0-3p0-0-1p0-0-------------|
|--4p0-0-2p0-0-4p0-0-2p0-0-4p0-0-2p0-0-----0-0-----|
|----------------------------------------0h2-------|
|--------------------------------------------------|
|--------------------------------------------------|

Riff 3
|-----------------------------------------------|
|------------------------------------3-5--3-----|
|--0-0-2-4-4-2-0-0----------0-0-2-4-------------|
|-------------------2-0-0-2---------------------|
|-----------------------------------------------|
|-----------------------------------------------|

|-----------------------------------------------------------|
|--3-5-5-3-0-0-3-1-0------------------3-5--3-0--------------|
|---------------------2-0--------0-2s4----------2h4p2-0-----|
|-------------------------2--0-2----------------------------|
|-----------------------------------------------------------|
|-----------------------------------------------------------|

|-----|
|--3--|
|--0--|
|--0--|
|-----|
|--3--|

Repeat these riffs once, then finish with this.

|----------------------------------|
|--------------------3-------------|
|----3-5-5b7r5p3-5b7---3-----------|
|--5----------------------5-5~-----|
|----------------------------------|
|----------------------------------|

And that's it! If you have any questions, please don't hesitate to e-mail me at sunhill@live.com.
Tap to rate this tab
 
# A B C D E F G H I J K L M N O P Q R S T U V W X Y Z