Song name
# A B C D E F G H I J K L M N O P Q R S T U V W X Y Z

Ac Dc - Borrowed Time tab

-------------------------------------------------------------------------------
			                           Borrowed Time - AC/DC
-------------------------------------------------------------------------------
Tabbed by: jkmat
Email: googlepufferfish@aol.com

Tuning: Standard

e|------------------------------5--3----3----3----2----3--2------------------|
B|--0--------3---3--------------5--3----3----3----3----3--3------------------|
G|--0--------4---4----2---2-----0--0----0----0----2----2--2---2--------------|
D|--0--------4---4----2---2-----------------------------------2----2---------|
A|-----------2---2----0---0-----------------------------------0--3^0---------|
E|----------------------------------------------------------------------17\--|

e|------------3---3----------------------------5-3--3--3--2--3--2------------|
B|----2---2---3---3----------3---3-------------5-3--3--3--3--3--3------------|
G|----2---2---0---0----------4---4---2---2-----0-0--0--0--2--2--2---2--------|
D|----2---2---0---0----------4---4---2---2--------------------------2----2---|
A|----0---0------------------2---2---0---0--------------------------0--3^0---|
E|------------3---3----------------------------------------------------------|

************************************
| \   slide down
| ^   Bend
************************************
Tap to rate this tab
 
# A B C D E F G H I J K L M N O P Q R S T U V W X Y Z