Ac Dc - Touch Too Much tab

AC/DC - Touch Too Much Bonfire Volts Version

Tuning: Standart
Mail: degot@bk.ru

This rare composition is from album "Bonfire Volts" 1997, and i find it even better than 
version;
Sorry here is no solo, but i made this tab not for solo but for its great riffs, so here 
is!

x - muted note
h - hammer-on

Intro
e|------------------------2-------------------------3-2-----|   |----|
B|------------------------3-------------------------3-3-----|   |----|
G|---0h2--0h2--0h2--2-2-2-2------0h2--0h2--0h2--2-2-0-2-----|   |--2-|
D|---0h2--0h2--0h2--2-2-2-0------0h2--0h2--0h2--2-2-0-0-----|   |--2-|
A|---0-0--0-0--0-0--0-0-0--------0-0--0-0--0-0--0-0-0-------|   |--0-|
E|--------------------------------------------------3-------|x4 |----|


Main riff
e|-------------------------22-------------------------------|
B|-------------------------33-------------------------------|
G|---2--2--x2------------2-22-------------------------------|
D|---2--2--x2------------2-00-------------------------------|
A|---0--0--x0(let_ring)--0----------------------------------|
E|----------------------------------------------------------|x12

-on 12-th time play
e|----------------------------------------------------------|
B|----------------------------------------------------------|
G|---2--2--x2------------2222-------------------------------|
D|---2--2--x2------------2222-------------------------------|
A|---0--0--x0(let_ring)--0000-------------------------------|
E|----------------------------------------------------------|


Pre-chorus
e|---3---3---2------------3---3-----------------------------|
B|---3---3---3--3---------3---3-----------------------------|
G|---0---0---2--2-2-0-2---0---0-----------------------------|
D|---0---0---0--0-2-0-2---0---0---2--2--2--2-2--------------|
A|---0---0--------0-0-0---0---0---2--2--2--2-2--------------|
E|---3---3----------3-----3---3---0--0--0--0-0--------------|


Chorus
e|------------------22-3-2-------|
B|------------------33-3-3-------|
G|---0h2--0h2--0h2--22-0-2-------|
D|---0h2--0h2--0h2--00-0-0-------|
A|---0-0--0-0--0-0-----0---------|
E|---------------------3---------|x4

Then main riff(x8),
then pre-chorus and chorus(x8),
then comes solo, sorry no solo :(


As solo background:
play pre-chorus' second part, then chorus x8 times, then next combinations few times each

e|---3--2-3-2-3----------3--2-------------------3--2-------|
B|---3--3-3-3-3----------3--3------------------3---3-------|
G|---0--2-0-2-2--2-------0--2--0h2--------2---2----2-------|
D|---0--0-0-0-0--2-------0--0--0h2--------2--0-----0-------|
A|---0----0------0-------0-----0-0--------0----------------|
E|---3----3--------...---3-----------...-------------...---|

Then comes Pre-Chorus and Chorus a lot of times (m.b 20) softer and softer...

Touch Too Much rocks!
Tap to rate this tab
 
# A B C D E F G H I J K L M N O P Q R S T U V W X Y Z