Song name
# A B C D E F G H I J K L M N O P Q R S T U V W X Y Z

Ac Dc - Shot Of Love tab

AC/DC - Shot of love (The Razors Edge 1990)


Tuning: Standart
Mail: degot@bk.ru


I couldnt find tab for this song so i decided to make it. Hope you wouldnt be too strict to me.
And sorry for my english - im not from English-speaking country.


Intro
e|----------------|   |------------------------|
B|----------3-----|   |---3--------------------|
G|--------2-2-----|   |---2-2-4----------------|
D|---4----2-0-2---|   |---0-2-4----------------|
A|---4----0---2---|   |-----0-2(let_ring)------|
E|---2--------0---|x2 |------------------------|



Malcolm parts (during whole song, exept "pre-solo" #2):
-------------------------------------------------|
All chords with short duration.

Main lead part 
e|----------------2--------------|   
B|----------------3--------------|   
G|--4-4----4-4----2----2---------|   
D|--4-4----4-4----0-2--2-2-------|   
A|--2-2----2-2------2--0-2-------|   
E|------------------0----0-------| etc.

In some places just 
e|--------------|   
B|--------------|   
G|--4-4----4-4--|   
D|--4-4----4-4--|   
A|--2-2----2-2--|   
E|--------------|

-------------------------------------------------|


Main riff (Angus)
e|----------------22---------------------------------|
B|----------------33---------------------------------|
G|---4------------22-----22------4-------------------|
D|---4------------00-22--22-22---4-------------------|
A|---2(let_ring)-----22--00-22---2(let_ring)---------|
E|-------------------00-----00-----------------------|x4


Chorus (Together)                        
e|-------------------------------|   |--------------------| 
B|-------------------------------|   |--------------------| 
G|---2-------22----4-------------|   |----2---4-----------| 
D|---2---2---22-22-4-------------|   |----2-2-4-----------| 
A|---0---2---00-22-2(let_ring)---|   |----0-2-2(let_ring)-| 
E|-------0------00---------------|x2 |------0-------------| 


Then comes solo,

h - hammer-on
p - pull-off
^^ - bend(9^^9 means bend 9 and return to 9, like 9h11p9) 
^ - 1/2 bend
~ - vibrato
\ - slide


Solo part 1
e|-------10^--10^-------------------------------------------|
B|--------9^---9^--7------------9~-9~-----------------------|
G|------------------9-7h9p7-9p7-9~-9~-7---------------------|
D|--------------------------------------9-7h9~--------------|
A|----------------------------------------------------------|
E|----------------------------------------------------------|


e|----------------------------------------------------------|
B|------9^-9^~-7-------9^p7---------------------------------|
G|------9^-9^~-7-------9^p7---------------------------------|
D|---------------7\21\------7(8)-9~\------------------------|
A|----------------------------------------------------------|
E|----------------------------------------------------------|


e|--------10^-x-7--10^p7-7--10^p7---7~\---------------------|
B|--------------------------------10------------------------|
G|----------------------------------------------------------|
D|----------------------------------------------------------|
A|----------------------------------------------------------|
E|----------------------------------------------------------|


e|---------10-12-12h13p12-12^-10----------10-12-11-10-------|
B|-------12--------------------------11-12------------12~\--|
G|----------------------------------------------------------|
D|----------------------------------------------------------|
A|----------------------------------------------------------|
E|----------------------------------------------------------|


Then comes chorus again,


Then
Angus: 
E|---7-7-5h7~~-5h7~~--|



Then comes this "pre-solo" (play simultaneously):
-------------------------------------------------|

Malcolm:
e|--------------------2--------------------|
B|--------------------3--------------------|
G|-------------2---22-2--------2-2-4-------|
D|---22-4---44-2---22-0--------2-2-4-------|
A|---22-4---44-0---00----------0-0-2-------|
E|---00-2---22-----------------------------|x2

Angus:
e|-----------------------------------------|
B|-----------------------------------------|
G|--------------------7--------------------|
D|-------------7~--77----------7-7-9~\-----|
A|---77h9~--99-----------------------------|
E|-----------------------------------------|x1
 
e|-----------------77-10^--7---------------|
B|-----------------77--9^--7---------------|
G|--------------------------9--------------|
D|-------------7~--------------7-7-7-7h9~--|
A|---77h9~--99-----------------------------|
E|-----------------------------------------|x1

-------------------------------------------------|


Then solo again,

Solo part 2
e|---------7------7---10^-7-10p7---------7---------7-----------|
B|-------7-7----7-7----9^-7--9p7--9^^9~--7-9-9p7---7-9-7-------|
G|----9^^----9^^----9-------------9^^9~----9-9p7-----9-7-------|
D|----------------------------------------------9--------9~\---|
A|-------------------------------------------------------9~\---|
E|-------------------------------------------------------------|

                                       <+++++++++++++++>
e|----77-------77--------7h10^--7h10p7-------------------------|
B|----77-9-7---77-9^^9~--7h-9^--7h-9p7-9p7---7-9p7-------------|
G|-------9-7------9^^9~----------------9p7---7-9p7-------------|
D|-----------9-----------------------------9-------9-7^--------|
A|-------------------------------------------------------------|
E|-------------------------------------------------------------|

Not very much sure about <+++++++++++++++> marked part =(


Then comes Chorus 
with Agnus'
         ||
         \/
e|---x-7-10-x-7-----------------|
B|---x-7--9-x-7-----------------|
G|-------------9~\--------------|
D|------------------------------|
A|------------------------------|
E|------------------------------|


Then comes 3rd solo but it's pretty much hard and illegible for me, sorry i didnt tab it;
you can use your improvisation cause Angus uses the same notes and chords in it. :)


End with

Malcolm:
e|--------------------|
B|--------------------|
G|---22----4----------|
D|---22-22-4----------|
A|---00-22-2----------|
E|------00------------|

Angus:
e|--------------------|
B|--------------------|
G|--------------------|
D|---7-----9----------|
A|------7-------------|
E|--------------------|

Thats it!
Tap to rate this tab
 
# A B C D E F G H I J K L M N O P Q R S T U V W X Y Z