Song name
# A B C D E F G H I J K L M N O P Q R S T U V W X Y Z

Ac Dc - Fling Thing tab

User: MkBerg
Mail: mkberg@live.no

It is not exact but close.

E|---------------------------------------------|
B|---------------------------------------------|
G|--------------------------------------7-9-7--|
D|--5-5-7-9-9-7-5-5-----------5-5-7-9-9--------|
A|-------------------7-5-5--7------------------|
E|---------------------------------------------|

E|---------------------------------------------------2--|
B|---------------------------------------------------2--|
G|-7-9-9-7-----7----------------------------7-----------|
D|---------9-9---10-9-7-5----------5--5-7-9---9--7------|
A|------------------------7-5--5-7-------------------2--|
E|---------------------------------------------------3--|

Thanks!
Tap to rate this tab
 
# A B C D E F G H I J K L M N O P Q R S T U V W X Y Z