Ac Dc - Down On The Borderline tab

AC/DC - Down on the borderline (Backtracks: Studio Rarities)

Tuning: Standart
Mail: degot@bk.ru

h - hammer-on
x - muted note


Intro:

Malcolm
e|---------------------------------------------|
B|---------------------------------------------|
G|---------3-3-----3---3-----------------------|
D|---3-----1-0-----1---0-----------------------|
A|---3----------1---------1-3------------------|
E|---1-----------------------------------------|

Angus
e|---------------------------------------------|
B|---------4-3-----4---3-----------------------|
G|---------3-3-----3---3-----------------------|
D|---3-----------------------------------------|
A|---3-----------------------------------------|
E|---1-----------------------------------------| x2


Main theme:

Malcolm
e|---------------------------------------------|
B|---------------------------------------------|
G|----------------------3-3--3-333-------------|
D|---1h3-3-3--3---------1-0--1-000-------------|
A|--------------1-----1------------------------|
E|------------------4--------------------------|

Angus
e|---------------------------------------------|
B|----------------------4-3--4-333-------------|
G|----------------------3-3--3-333-------------|
D|---1h3-3-3--3--------------------------------|
A|--------------1------------------------------|
E|---------------------------------------------| etc.


Chorus:

Malcolm
e|----------------------------------------------------------|
B|----------------------------------------------------------|
G|----------------------------------------------------------|
D|---3--5--6--8----3--5--6--8----6-------------8------------|
A|---3--5--6--8----3--5--6--8----6-------------8------------|
E|---1--3--4--6----1--3--4--6----4(let_ring)---6(let_ring)--|

Angus
e|----------------------------------------------------------|
B|----------------------------------44-3--4-3---------------|
G|------8-------------8-------------33-3--3-3---------------|
D|---3--8--6--8----3--8--6--8----6-------------8--66-8--6-8-|
A|---3--6--6--8----3--6--6--8----4-------------8--66-8--6-8-|
E|---1-----4--6----1-----4--6----4-------------6--44-6--4-6-| x1


/*
NOTE: This tab is only my guess, 
noone knows how to play it right, 
but it sounds rather close. Have fun!
*/

Tap to rate this tab
 
# A B C D E F G H I J K L M N O P Q R S T U V W X Y Z