Ac Dc - Rock In Peace tab

E)--------------------------------------------------------------------------|
B)--------------------------------------------------------------------------|
G)-4-4-4-4-4-4-4-4-4-4-4-4-4-4-4-4-4-4-4-4----------------------------------|
D)-4-4-4-4-4-4-4-4-4-4-4-4-4-4-4-4-4-4-4-4----------------------------------|
A)-2-2-2-2-2-2-2-2-2-2-2-2-2-2-2-2-2-2-2-2----------------------------------|
E)--------------------------------------------------------------------------|

E)--------------------------------------------------------------------------|
B)--------------------------------------------------------------------------|
G)--------------------------------------------------------------------------|
D)--------------------------------------------------------------------------|
A)-2-2-4-2--2-2-4-2--2-2-4-2--2-2-4-2---------------------------------------|
E)-0-0-0-0--0-0-0-0--0-0-0-0--0-0-0-0---------------------------------------|

E)--------------------------------------------------------------------------|
B)--------------------------------------------------------------------------|
G)--------------------------------------------------------------------------|
D)-2-2-4-2--2-2-4-2---------------------------------------------------------|
A)-0-0-0-0--0-0-0-0---------------------------------------------------------|
E)--------------------------------------------------------------------------|

E)--------------------------------------------------------------------------|
B)--------------------------------------------------------------------------|
G)--------------------------------------------------------------------------|
D)--------------------------------------------------------------------------|
A)-2-2-4-2--2-2-4-2---------------------------------------------------------|
E)-0-0-0-0--0-0-0-0---------------------------------------------------------|

E)--------------------------------------------------------------------------|
B)--------------------------------------------------------------------------|
G)--------------------------------------------------------------------------|
D)-4-4-4-4-4-4-4-4-4--2-2-2-2-2-2-2---2-5-4-3-------------------------------|
A)-2-2-2-2-2-2-2-2-2--0-0-0-0-0-0-0---2-5-4-3-------------------------------|
E)------------------------------------0-3-2-1-------------------------------|

is something like this and repeats some times =)
Tap to rate this tab
 
# A B C D E F G H I J K L M N O P Q R S T U V W X Y Z