Song name
# A B C D E F G H I J K L M N O P Q R S T U V W X Y Z

Ac Dc - Messin With The Kid tab

Intro tid bit
E|-------------------|
B|-------------------|
G|-----7-9b-7-9---7-.|
D|---9----------9---.|
A|-------------------|
E|-------------------|

Riff                repeat
|-------------------------||------------------------------------------|
|-------------------------||------------------------------------------|
|------------------------.||----------------------------2-------------|
|------2-----------------.||--------------2-2-----------2-------------|
|------2-----4------------||--------------0-0-3-0-5-0-3-0-0-3-0-5-0-3-|
|---3--0--0--0--0--0--3b--||--3-3-4-4-5-5-----------------------------|
("guitar 2 slides the 3")

Chorus
E|----------------------------------------------------------------------|
B|----------------------------------------------------------------------|
G|---4---4---4---4---2---2---2--2---------------------------------------|
D|---4---4---4---4---2-2-2-2-2--2---------------------------------------|
A|---2-2-2-2-2-2-2---0-0-0-0-0--0---------------------------------------|
E|-------------------------------------0-0-3-3-4-4-5-5-7-5-7-5~~~~~~----|
Tap to rate this tab
 
# A B C D E F G H I J K L M N O P Q R S T U V W X Y Z