Song name
# A B C D E F G H I J K L M N O P Q R S T U V W X Y Z

Ac Dc - Come And Get It tab


Intro:
E|---------------------------|---------------------------|-------------------------|
B|---------------------------|---------------------------|-------------------------|
G|-----2---------------------|-----2---------------------|-----2-------------------|
D|--2--2--x-/7~~~5-----------|--2--2--x-/7~~~5-----------|--2--2--x-/7~~~5---------|
A|--3--0--x--------5-6-7-----|--3--0--x--------5-6-7-----|--3--0--x--------5-6-7---|
E|-----------------------8---|-----------------------8---|-----------------------8-|

E|---------------------------|
B|---------------------------|
G|-----2-----2---------------|
D|--2--2--x--2---------------|
A|--3--0--x--0---------------|
E|---------------------------|
             let ring......... picken up the sleaze in my car
VERSE
E|------------------------------|------------------------------|
B|------------------------------|------------------------------|
G|-----2--x---------------------|------------------------------|
D|--2--2--x-/-7~~~5----------7--|------------------------------|
A|--3--0--x---------5-6-7----7--|------------------------------|
E|------------------------8--5--|------------------------------|
                                 "hell no distance too far"     repeat

PRE CHORUS
   Guitar 2
	|------------------------|-------------------|------------------------|
	|------------------------|-------------------|------------------------|
	|--5--5-----5---------5--|--5----------------|--5--5-----5---------5--|
	|--4--4--5--4----5----4--|--4----------------|--4--4--5--4----5----4--|
	|--5--5--5--5----5----5--|--5----------------|--5--5--5--5----5----5--|
	|--------3-------3-------|-------------------|--------3-------3-------|
   Guitar 2
	|------------------------|-------------------|------------------------|
	|--1--1--0--1----0----1--|-------------------|--1--1--0--1----0----1--|
	|--2--2--0--2----0----2--|-------------------|--2--2--0--2----0----2--|
	|--0--0--0--0----0----0--|-------------------|--0--0--0--0----0----0--|
	|------------------------|-------------------|------------------------|
	|------------------------|-------------------|------------------------|

    Guitar 1
	|------------------------|-------------------|------------------------|
	|------------------------|-------------------|--3--3-----3------------|
	|--7--7-----7---------7--|--7----------------|--2--2--2--2---2--0-----|
	|--6--6--7--6----7----6--|--6----------------|--0--0--2--0---2--0--2-2|
	|--7--7--7--7----7----7--|--7----------------|--------3------3--0--2-2|
	|--------5-------5----0--|--0----------------|---------------------0-0|
   Guitar 2
	|------------------------|-------------------|------------------------|
	|--3--3--2--3----2---3---|-------------------|------------------------|
	|--4--4--2--4----2---4---|-------------------|--2--2-----2------------|
	|--2--2--2--2----2---2---|-------------------|--0--0-----0------------|
	|------------------------|-------------------|--------3------3--------|
	|------------------------|-------------------|-------------------0--0-|

PLAY CHORUS(VERSE)
                          W.B: Whammy bar: or drop the tuning peg)

SOLO                                tremelo
E|---------------------------------------------------------------------------------------------|
B|---------------------------------------------------------------------------------------------|
G|-----2-------2-------2---WB------------------------------------------------------------------|
D|--2--2----2--2----2--2---/7~~~~~~~~~~~~7>>>>>>>>>>>>>>>>>>>>>>>>>>>>>>>>>>>>>>>>>>>>>>>>>>>--|
A|--3--0----3--0----3--0-----------------#-----------------------------------------------------|
E|---------------------------------------------------------------------------------------------|

E|-----------------------------------0-0----------------------------------------------------------|
B|--7b-r-b------------3-3-3-3-3----------3/-------------------------12------15-15-15-15-15-15-15--|
G|--7b-r-b--2b-hold-b-b-b-b-b-b-0------------12-----12-14b-r-14-12-----14b(hold)b-b-b-b-b-b-b-b---|
D|--------------------------------2-------------14------------------------------------------------|
A|------------------------------------------------------------------------------------------------|
E|------------------------------------------------------------------------------------------------|

E|--------------5--5--------------------------------------------------------------|
B|--------------------8--5--------------------------------5-----15-----13-13--13--|brbrbrbrbrbrbrb
G|----5---------------------8^7^5-------------------------5-----15-14-------------|
D|-------7--7---------------------7-7^5---5-------7----------7--------------------|
A|--------------------------------------7------------WB---------------------------|
E|------------------------------------------8WB------8----------------------------|
                                                                         tremelo
E|-------------------------------------------------------------------------#---------#---------|
B|-10-13-10--10--10--10------10-10-10-10----10-10----10-------------------/13-------/17--------|
G|-------12b-12b-12b-12b-12b-------------12b------12------5-----5------5--/12-------/16--------|
D|--------------------------------------------------------5--5--5---5--5---#---------#---------|
A|-----------------------------------------------------------5------5--------------------------|
E|---------------------------------------------------------------------------------------------|

E|------------------------------------------------------------------------------------2--2--|
B|---------13------15b-r-b------------------------------------------------------------3--3--|
G|---12-14-12-14------------15-15----------------------------2--x---------------------2--2--|
D|---12-14----14------------------7~~~~~~~~~~~~~~~~~~~~~-2--2--x-/-7~~~-5------------0--0---|
A|--------------------------------------------------------3--0--x----------5-6-7---0--------|
E|-------------------------------------------------------------------------------8----------|

      |--14-15-15----12-----12----12---12---12--------------------14--------------15-------|
      |--------------15b----15b---15b--15b--15b-15b-r-13----13/----------13b-r15b----b-----|
      |--------------------------------------------------14--------------------------------|
      |------------------------------------------------------------------------------------|
      |------------------------------------------------------------------------------------|
      |------------------------------------------------------------------------------------|

E|-12-----------------------12---12----------------------------15---15---15-----15--15--15---15--|
B|----13-10----10-13/----13-b--r-b-r-------------8--7-6-5------14b--14b--14b----14--15b-14b--14--|b
G|----------12-----------------------14-12-14-------------7-5------------------------------------|
D|-----------------------------------------------------------------------------------------------|
A|-----------------------------------------------------------------------------------------------|
E|-----------------------------------------------------------------------------------------------|
    #
E|-15-----xx------------------------------------------|
B|-14b----xx---7b--r--b-------------------------------|
G|--#-----------7b--r--b--7-5------------------2------|
D|----------------------------7-5--------------2------|
A|--------------------------------7-5-6-7------0------|
E|----------------------------------------9~~~~-------|
Tap to rate this tab
 
# A B C D E F G H I J K L M N O P Q R S T U V W X Y Z