Song name
# A B C D E F G H I J K L M N O P Q R S T U V W X Y Z

Ac Dc - Back In Black tab

AC/DC
Back in Black


This is my first tab and I think its pretty close so just have fun with it and keep on rockin!
                        

        E     A     E
|------------------------3-0-----------|
|----------------------------3-0-------|
|-------------2------------------3-0---|
|-------2-----2-----2------------------|
|-------2-----0-----2------------------|
|-------0-----------0------------------|


       E     A     E
|----------------------------------------------|
|----------------------------------------------|
|------------2---------------------------------|
|------2-----2-----2---------------------------|
|------2-----0-----2---------------------------|
|------0-----------0---------9-6-9-7-9-8-9/----|
Tap to rate this tab
 
# A B C D E F G H I J K L M N O P Q R S T U V W X Y Z