Ac Dc - Gone Shootin tab

---------------------------------------------------------------------------
			     GONE SHOOTIN - AC/DC
---------------------------------------------------------------------------

Tabbed by: Luke_the_axe
Email:costyrulz@hotmail.com

E-mail me your comments please!

These are my tabs for the intro to "Gone Shootin". Other tabs to this song don't sound 
right to me so I wrote my own. I reckon this is pretty close though.

Tuning: Standard

Angus Intro:

e|-----------------------------------------------------------|
B|--6------4--4--4--3----------------------------------------|
G|--5-(x)--5--5--3--3-----------5----------------------------|
D|--------------------3~~~--3h5------------------------------|
A|-----------------------------------------------------------|
E|-----------------------------------------------------------|

Malcolms Intro:
e|-----------------------------------------------------------|
B|-----------------------------------------------------------|
G|-----------------------------------------------------------|
D|----------11-----------------------------------------------|
A|------7---9------------------------------------------------|
E|--7h9-----9------------------------------------------------|



************************************

| h   hammer-on
| ~   vibrato
| x   Mute note

************************************
Tap to rate this tab
 
# A B C D E F G H I J K L M N O P Q R S T U V W X Y Z