Song name
# A B C D E F G H I J K L M N O P Q R S T U V W X Y Z

Ac Dc - Tnt tab

key
 h=hammer on
 b=bend string

Intro/Verse
----|-------------------------------------------------------------|
----|-------------------------------------------------------------|
----|----------2------2-------------------------------------------|
--2-|---2------2------2-------------------------------------------|
--2-|---2------0------0-------------------------------------------|
--0-|---0---3------3-----3----------------------------------------|


Chorus
------------------------------------------------------------------|
------------------------------------------------------------------|
----2-------------------------------------------------------------|
----2-----2-------------------------------------------------------|
----0-----2-------------------------------------------------------|
-------3--0-------------------------------------------------------|


Solo
-----------3-2-0------------------------------12------------------|
-----------------3-2-0-----------------15-------------------------|
-2h-4b------------------3-2-0-------------------------------------|
------------------------------------------------------------------|
------------------------------------------------------------------|
------------------------------------------------------------------|



------------------------------------------------------------------|
---15--12---------------------------------------------------------|
-----------14---12--------12--------------------------------------|
---------------------14-------14----------------------------------|
------------------------------------------------------------------|
------------------------------------------------------------------|



---------------------12-------------------------------------------|
-----------12---14------12----------------------------------------|
--12--15----------------------------------------------------------|
------------------------------------------------------------------|
------------------------------------------------------------------|
------------------------------------------------------------------|



--------12----15---12---------12-------------------------------------17b-|
---15-------------------15---------15---12---14----12------12------------|
-------------------------------------------------------14------14--------|
-------------------------------------------------------------------------|
-------------------------------------------------------------------------|
-------------------------------------------------------------------------|
Tap to rate this tab
# A B C D E F G H I J K L M N O P Q R S T U V W X Y Z