Song name
# A B C D E F G H I J K L M N O P Q R S T U V W X Y Z

Ac Dc - Tnt tab

-------------------------------------------------------------------------------
			     TNT - AC/DC
-------------------------------------------------------------------------------
Tabbed by: Micah
Email: micah.klof@yahoo.com

*The solos are not in this tab. If you want them go to the solo tab*

Tuning:If you listen to the song it is tuned Standard but 50 cents flat so E is actually 
halfway between E and E-flat. Keep that in mind when tuning.
TEMPO: 130 bpm

e|----------|
B|----------|
G|----------|
D|2~--------|Hold for 7 seconds
A|2~--------|
E|0~--------|

(0:08)
e|-----------------|
B|-----------------|
G|-----------------|
D|2~--5-7~--5-7-5--| X4
A|2~--5-7~--5-7-5--|
E|0~--3-5~--3-5-3--|

Verse

e|-----------------|
B|-----------------|
G|-----------------|
D|2~--5-7~--5-7-5--| X7
A|2~--5-7~--5-7-5--|
E|0~--3-5~--3-5-3--|

e|-----------------|
B|-----------------|
G|-----------------|
D|2~--5-7~---------|
A|2~--5-7~---------|
E|0~--3-5~---------|

Chorus

e|-----------------|
B|-----------------|
G|-----------------|
D|7-5-2------------| X3
A|7-5-2------------|
E|5-3-0------------|


e|-----------------|
B|-----------------|
G|-----------------|
D|7-5-2---5-7------|
A|7-5-2---5-7------|
E|5-3-0---3-5------|
 |     (Guitar2)   |
e|-----------------|
B|-----------------|
G|--------------2br|
D|-----------------|
A|-----------------|
E|-----------------|



e|-----------------|
B|-----------------|
G|-----------------|
D|2~--5-7~--5-7-5--| X2
A|2~--5-7~--5-7-5--|
E|0~--3-5~--3-5-3--|

Verse

e|-----------------|
B|-----------------|
G|-----------------|
D|2~--5-7~--5-7-5--| X7
A|2~--5-7~--5-7-5--|
E|0~--3-5~--3-5-3--|

e|-----------------|
B|-----------------|
G|-----------------|
D|2~--5-7~---------|
A|2~--5-7~---------|
E|0~--3-5~---------|

Chorus

e|-----------------|
B|-----------------|
G|-----------------|
D|7-5-2------------| X3
A|7-5-2------------|
E|5-3-0------------|


e|-----------------|
B|-----------------|
G|-----------------|
D|7-5-2---5-7------|
A|7-5-2---5-7------|
E|5-3-0---3-5------|
 |     (Guitar2)   |
e|-----------------|
B|-----------------|
G|--------------2br|
D|-----------------|
A|-----------------|
E|-----------------|

Guitar 1 does 1 verse while Guitar 2 Solos

Chorus

e|-----------------|
B|-----------------|
G|-----------------|
D|7-5-2------------| X7
A|7-5-2------------|
E|5-3-0------------|


e|-----------------|
B|-----------------|
G|-----------------|
D|7-5-2---5-7------|
A|7-5-2---5-7------|
E|5-3-0---3-5------|
 |     (Guitar2)   |
e|-----------------|
B|-----------------|
G|--------------2br|
D|-----------------|
A|-----------------|
E|-----------------|

Ending
(Top notes are Guitar 2)
e|------------1------2-----3---4-5-6-7--8--9--10-11-12-13-14-15-16-17-18-19-|
B|----5---------------------------------------------------------------------|
G|--------------------------------------------------------------------------|
D|2-------3-------4-----5----6--7-8-9-10-11-12-13-14-15-16-17-18-19-20-21---|
A|2-------3-------4-----5----6--7-8-9-10-11-12-13-14-15-16-17-18-19-20-21---|
E|0-------1-------2-----3----4--5-6-7--8--9-10-11-12-13-14-15-16-17-18-19---|

e|--------------------------------------------|
B|--------------------------------------------|
G|--------------------------------------------|
D|21-21-21-21-21-21-etc-----------------------| just go crazy
A|21-21-21-21-21-21-etc-----------------------|
E|19-19-19-19-19-19-etc-----------------------|

End with

e|----------|
B|----------|
G|----------|
D|2~--------|
A|2~--------|
E|0~--------|

THANKS FOR ROCKING





************************************

| /   slide up
| \   slide down
| h   hammer-on
| p   pull-off
| ~   vibrato
| +   harmonic
| x   Mute note
| b   Bend
| pb  Pre-bend
| br  Bend release
| pbr Pre-bend release
| brb Bend release bend

************************************
Tap to rate this tab
 
# A B C D E F G H I J K L M N O P Q R S T U V W X Y Z