Song name
# A B C D E F G H I J K L M N O P Q R S T U V W X Y Z

Ac Dc - Dog Eat Dog tab

Intro:
Guitar 1&2
         x2
e|-------|
B|-----3-|
G|---2-2-|
D|-2-2-0-|
A|-2-0---|
E|-0-----|

Verse:
Guitar 1 (Angus)
             x4            x2           x2
e|------------|-----3--3---|------------|
B|-----3--3---|---3-3--3-3-|-----3--3---|
G|---2-2--2-2-|-2-2-0--0-2-|---2-2--2-2-|
D|-2-2-0--0-2-|-2-0------0-|-2-2-0--0-2-|
A|-2-0------0-|-0----------|-2-0------0-|
E|-0----------|------------|-0----------|

Guitar 2 (Malcolm)
                     x4                  x2                  x2
e|--xx--xx--xxxx-----|--xx--xx-3xxxx-3---|--xx--xx--xxxx-----|
B|--xx--xx-3xxxx-3---|--xx-3xx-3xxxx-3-3-|--xx--xx-3xxxx-3---|
G|--xx-2xx-2xxxx-2-2-|-2xx-2xx-0xxxx-0-2-|--xx-2xx-2xxxx-2-2-|
D|-2xx-2xx-0xxxx-0-2-|-2xx-0xx--xxxx---0-|-2xx-2xx-0xxxx-0-2-|
A|-2xx-0xx--xxxx---0-|-0xx--xx--xxxx-----|-2xx-0xx--xxxx---0-|
E|-0xx--xx--xxxx-----|--xx--xx--xxxx-----|-0xx--xx--xxxx-----|

Pre-Chorus:
Guitar 1&2

e|------------------|
B|------------------|
G|------------------|
D|-4-4-444--2-2-222-|
A|-2-2-222--0-0-000-|
E|------------------|

Chorus:
Guitar 1&2
         x2
e|-------|
B|-----3-|
G|---2-2-|
D|-2-2-0-|
A|-2-0---|
E|-0-----|

Solo:
Guitar 1
                                  x2                              x2
e|--------------------------------|-------------------------------|
B|-/18(Trem. Pick-6 Beats)-20-18\-|-/13(Trem. Pick-6 Beats)-15-13-|
G|-/19(Trem. Pick-6 Beats)-19-19\-|-/14(Trem. Pick-6 Beats)-14-14-|
D|--------------------------------|-------------------------------|
A|--------------------------------|-------------------------------|
E|--------------------------------|-------------------------------|
                                  x2       x2
e|--------------------------------|--------|
B|-/18(Trem. Pick-6 Beats)-20-18\-|--------|
G|-/19(Trem. Pick-6 Beats)-19-19\-|---2----|
D|--------------------------------|-2-2----|
A|--------------------------------|-2-0-5~-|
E|--------------------------------|-0------|

Guitar 2
                x2             x2             x2      x2   
e|---x--x--x----|---x--x--x----|---x--x--x----|-------|
B|---x--x--x3---|---x--x--x----|---x--x--x3---|-----3-|
G|-2-x2-x2-x2-2-|---x--x--x2---|-2-x2-x2-x2-2-|-2-2-2-|
D|-2-x2-x2-x0-2-|-2-x2-x2-x2-2-|-2-x2-x2-x0-2-|-2-2-0-|
A|-0-x0-x0-x--0-|-2-x2-x2-x0-2-|-0-x0-x0-x--0-|-2-0---|
E|---x--x--x----|-0-x0-x0-x--0-|---x--x--x----|-0-----|
Tap to rate this tab
# A B C D E F G H I J K L M N O P Q R S T U V W X Y Z