Song name
# A B C D E F G H I J K L M N O P Q R S T U V W X Y Z

Ac Dc - Furor tab

AC/DC - The Furor

Intro:

|-----------------| Repeat
|-----3-3---------|
|-----2-2---------|
|-3p0-----3p0---0-|
|-------------3---|
|-----------------|

Chord Riff 1(Power Chords):

| D | C | Bb| Repeat and then G

Chord Riff 2(Power Chords):

| D | C | Bb| Repeat then | G | Bb| C | back to Riff 1 then | D | Bb| C | G |

Pre-solo Riff

|--------------------------------------|
|-12b(13)(13)Rb12-~-----------12-------|
|-12b(13)(13)Rb12-10----10-10-12-------|
|--------------------12----------10h12-|
|--------------------------------------|
|--------------------------------------|

Solo in D blues (Chords as Riff 1 with slight variation at the end)

Key:

h = hammer on
p = pull off
b = bend to (note)
rb = reverse bend from (note) to original note
~ = vibrato
Tap to rate this tab
# A B C D E F G H I J K L M N O P Q R S T U V W X Y Z