Guitaretab - guitar tabs
Song name
# A B C D E F G H I J K L M N O P Q R S T U V W X Y Z

Ac Dc - If You Want Blood tab

----------------------------------------------------------------------------
                    IF YOU WANT BLOOD - ACDC
----------------------------------------------------------------------------

tabbed by Ryan Boone

Intro/Verse

e|-------------3-3-2--------|
B|-----3---3---3-3-3--------|
G|-2---2-2-2---0-0-2--------|
D|-2---0-2-0---0-0-0--------| play 16 times
A|-0-0---0---0--------------|
E|-----2---2---3-3----------|

Chorus

e|------3-2---|
B|------3-3---|
G|-2----0-2---|
D|-2----0-0---| play 7 times
A|-0----------|
E|------3-----|

play verse 10 more times
then the chorus 7 more times

solo

e|-------------------------------------------------------5---|
B|-----------------------------------------------7br-------5-|
G|--------5---7-5---5---5-5------5--5-5-----5-5--7br---------|
D|----------7-----7-5------------5--5-5-----5-5--------------|
A|---------------------------5h7--------5h7------------------|
E|-3b--------------------------------------------------------|

e|------5----------------------------------------------------|
B|-8b-----5-8-------------------------------13br--13br-------|
G|------------5br----7---5-----------------------------------|
D|-----------------7---7--------7-7--------------------------|
A|-----------------------------------------------------------|
E|-----------------------------------------------------------|
[ Tab from: http://www.guitaretab.com/a/ac-dc/34347.html ]
e|-10--------10-10--------10-10------------5-8p5---5---------|
B|----10-13b-------10--13-------10-13b--8b-------8---8p5-7brb|
G|-----------------------------------------------------------|
D|-----------------------------------------------------------|
A|-----------------------------------------------------------|
E|-----------------------------------------------------------|

e|-----------------------------------------------------------|
B|-7p5-----5-5--------5-5-------5---5-----5-----5-5-x-x-5--5-|
G|-----7-7------7-----5-5-------5---5-----5-5-5-5-5-x-x-5--5-|
D|---------7----------------7-7-------5-5--------------------|
A|-----------------------------------------------------------|
E|-----------------------------------------------------------|

e|-----------------------15b--------|
B|-------------13\---5\-------------|
G|----------------------------------|
D|-5b6b7-5-7------------------------|
A|----------------------------------|
E|----------------------------------|


End of solo

e|--------------3-3---2-2-|--------------------------|
B|----3-----3---3-3---3-3-|----3-----3---------------|
G|-2--2--2--2---0-0---2-2-|-2--2--2--2---------------|
D|-2--0--2--0---0-0---0-0-|-2--0--2--0-----0-----0---| play this several
A|-0-----0----------------|-0-----0------0-----0---3-|   times
E|--------------3-3-------|------------2-----3-------|


play main riff to the end of the song still working on the last solo,
please rate.
Related for If You Want Blood tab
×
Best way to learn
"If You Want Blood"