Song name
# A B C D E F G H I J K L M N O P Q R S T U V W X Y Z

Ac Dc - Moneytalks tab

        Moneytalks – AC/DC

Tabbed by AL3XT10 (Alex Thompson)

Yes, this is the CORRECT way to play it.

X – Mute String
/ - Slide Up
h – Hammer-On

Tuning – Standard (E, A , D , G, B, E)
----------------------------------------------------------

Intro
e-------------------------------|----------------------------------------|
B---12-10-12-10-13-12-10-8-10-8-|-12-10-12-10-13-12-10-8-8-10-8----------|
G---0--0--0--0--0--0--0—0--0--0-|-0--0--0--0--0--0--0--0-0-0--0----------|
D-------------------------------|----------------------------------------|
A-------------------------------|----------------------------------------|
E-------------------------------|----------------------------------------|

e-------------------------------|--------------3-|
B---12-10-12-10-13-12-10-8-10-8-|-12-10-12-10--3-|
G---0--0--0--0--0--0--0—0--0--0-|-0--0--0--0---0-|
D-------------------------------|--------------0-|
A-------------------------------|--------------x-|
E-------------------------------|--------------3-|      
        
Verse

e--3-3---------|-3-3--------|
B--3-3---------|-3-3--------|
G--0-0---------|-0-0--------|
D--0-0---------|-0-0--------| x6
A--x-x—3-1/2---|-x-x—3-1/2--|
E--3-3------3--|-3-3------3-|

Pre-Chorus

e---0-0-------|-0-0--------|
B---3-3-------|-3-3--------|
G---2-2—------|-2-2--------|
D---0-0--0-3/4|-0-0--0-3/4-| x2
A-------------|------------|
E-------------|------------|

e---0-0-------|--0-0-------|
B---1-1-------|--1-1-------|
G---0-0—------|--0-0-------|
D---2-2—2h3---|--2-2—2h3---| x2
A---3-3-----3-|--3-3-----3-|
E-------------|------------|

Chorus

e-------------------------------|----------------------------------------|
B---12-10-12-10-13-12-10-8-10-8-|-12-10-12-10-13-12-10-8-8-10-8----------|
G---0--0--0--0--0--0--0—0--0--0-|-0--0--0--0--0--0--0--0-0-0--0----------|
D-------------------------------|----------------------------------------|
A-------------------------------|----------------------------------------|
E-------------------------------|----------------------------------------|

e-------------------------------|--------------------------------3-------|
B---12-10-12-10-13-12-10-8-10-8-|-12-10-12-10-13-12-10-8-8-10-8--3-------|
G---0--0--0--0--0--0--0—0--0--0-|-0--0--0--0--0--0--0--0-0-0--0--0-------|
D-------------------------------|--------------------------------0-------|
A-------------------------------|--------------------------------x-------|
E-------------------------------|--------------------------------3-------|      

Verse

e--3-3---------|-3-3--------|
B--3-3---------|-3-3--------|
G--0-0---------|-0-0--------|
D--0-0---------|-0-0--------| x6
A—-x-x—3-1/2---|-x-x—3-1/2--|
E--3-3------3--|-3-3------3-|

Pre-Chorus

e---0-0--------|-0-0--------|
B---3-3--------|-3-3--------|
G---2-2—-------|-2-2--------|
D---0-0--0-3/4-|-0-0--0-3/4-| x2
A--------------|------------|
E--------------|------------|

e---0-0-------|--0-0-------|
B---1-1-------|--1-1-------|
G---0-0—------|--0-0-------|
D---2-2—2h3---|--2-2—2h3---| x2
A---3-3-----3-|--3-3-----3-|
E-------------|------------|

Chorus
e-------------------------------|----------------------------------------|
B---12-10-12-10-13-12-10-8-10-8-|-12-10-12-10-13-12-10-8-8-10-8----------|
G---0--0--0--0--0--0--0—0--0--0-|-0--0--0--0--0--0--0--0-0-0--0----------|
D-------------------------------|----------------------------------------|
A-------------------------------|----------------------------------------|
E-------------------------------|----------------------------------------|

e-------------------------------|--------------------------------3-|
B---12-10-12-10-13-12-10-8-10-8-|-12-10-12-10-13-12-10-8-8-10-8--3-|
G---0--0--0--0--0--0--0—0--0--0-|-0--0--0--0--0--0--0--0-0-0--0--0-|
D-------------------------------|--------------------------------0-|
A-------------------------------|--------------------------------x-|
E-------------------------------|--------------------------------3-|

(Build Up To Solo)

e---0-0-|-0-0--------|
B---3-3-|-3-3--------|
G---2-2—|-2-2--------|
D---0-0-|-0-0--------| x2
A-------|------------|
E-------|------------|



Solo (Couldn’t tab it yet, sorry)

Song Ending

e-------------------------------|---------------------------------------|
B---12-10-12-10-13-12-10-8-10-8-|-12-10-12-10-13-12-10-8-8-10-8---------|
G---0--0--0--0--0--0--0—0--0--0-|-0--0--0--0--0--0--0--0-0-0--0---------|
D-------------------------------|---------------------------------------|
A-------------------------------|---------------------------------------|
E-------------------------------|---------------------------------------|

e-------------------------------|--------------------------------------|
B---12-10-12-10-13-12-10-8-10-8-|-12-10-12-10-13-12-10-8-8-10-8--------|
G---0--0--0--0--0--0--0—0--0--0-|-0--0--0--0--0--0--0--0-0-0--0--------|
D-------------------------------|--------------------------------------|x3 
A-------------------------------|--------------------------------------|
E-------------------------------|--------------------------------------|

e--3--|
B--3--|
G--0--|
D--0--|
A--0--|
E--3--|
        
Tap to rate this tab
# A B C D E F G H I J K L M N O P Q R S T U V W X Y Z