Song name
# A B C D E F G H I J K L M N O P Q R S T U V W X Y Z

Ac Dc - Hail Caesar tab

AC/DC - "Hail Caesar"
From album "Ballbreaker"

Tabbed by Andreas Larsson (johnnyballe666@hotmail.com)

Regular tuning

 ||----||
*||----||*  <= repeat
*||----||*
 ||----||


Intro part1
e ||--------------------------------||
B ||--------------------------------||
G*||--------------------------------||*
D*||---------------------------2----||*
A ||2-2-----2-2-----2-2-----2--0----||
E ||3-0-----3-0-----3-0-----3-------||


Intro part2 & Chorus
e ||----------------------------------------------------------------||
B ||----------------------------------------------------------------||
G*||----------------------------------------------------------------||*
D*||---------------------------2-------------------------------2----||*
A ||2-2-----2-2-----2-2-----2--0----2-2-----2-2-----2-2-----2--0----||
E ||3-0-----3-0-----3-0-----3-------3-0-----3-0-----3-0-----3-------||


Verse 1
e ||----------------------------------------------------------------||
B ||----------------------------------------------------------------||
G*||----------------------------------------------------------------||*
D*||------2-------------------------------2-------------------------||*
A ||2---2-0-2-2---------------------2---2-0-2-2---------------------||
E ||0---3---3-0---------------------0---3---3-0---------------------||

  e|----------------------------------------------------------------|
  B|----------------------------------------------------------------|
  G|--------------------------------------2--------------------2----|
  D|------4---------------4---------2---2-0-2-2-2---2-2-----2--0----|
  A|4---0-2-0-4-----4---0-2-0-4-----0---3---0-3-0---3-0-----3-------|
  E|2---------2-----2---------2-------------------------------------|

  e ----------------------------------------------------------------|
  B --------------------------------------------------------3-------|
  G ----------------------------------2-------2-------2-----2-------|
  D ------4-------------4-----------4-0-4-4-4-0-4-4-4-0-4-4-0-------|
  A 4---0-2-0-4-----4---0-2-0-4-----2---2-2-2---2-2-2---2-2---------|
  E 2---------2-----2---------2-------------------------------------|


*Chorus*


Vers 2
e ||----------------------------------------------------------------||
B ||----------------------------------------------------------------||
G*||----------------------------------------------------------------||*
D*||------4-------------------------------4-------------------------||*
A ||4---0-2-0-4---------------------4---0-2-0-4---------------------||
E ||2---------2---------------------2---------2---------------------||

  e|----------------------------------------------------------------|
  B|----------------------------------------------------------------|
  G|------2---------------2---------------2--------------------2----|
  D|2---2-0-2-2-----2---2-0-2-2-----2---2-0-2-2-2---2-2-----2--0----|
  A|0---3---3-0-----0---3---3-0-----0---3---0-3-0---3-0-----3-------|
  E|----------------------------------------------------------------|

  e ----------------------------------------------------------------|
  B --------------------------------------------------------3-------|
  G ------2---------------2-----------2-------2-------2-----2-------|
  D 2---2-0-2-2-----2---2-0-2-2-----4-0-4-4-4-0-4-4-4-0-4-4-0-------|
  A 0---3---3-0-----0---3---3-0-----2---2-2-2---2-2-2---2-2---------|
  E ----------------------------------------------------------------|


*Chorus*


Bridge lick
Lead guitar        Backgr. guitar
  e|--------------------------------|
  B|---------------3----------------|
  G|9p7------------2----------------|
  D|----8-7--------0--3--0----------|
  A|--------10-7------1--0--5---2---|
  E|------------------------3---0---|

Lead guitar
  e|--------------------------------|
  B|--------------------------------|
  G|9p7-----------------------------|
  D|----8-7-------------------------|
  A|--------10-7----5-75--------2---|
  E|--------------------6-5-3---0---|


Solo background
e ||----------------------------------------------------------------||
B ||3----------------3--------------3----------------3--------------||
G*||2----------------2--------------2----------------2--------------||*
D*||0----3-0---------0-3-0----------0----3-0---------0-3-0----------||*
A ||-----1-0-5-2-------1-0-5---2---------1-0-5-2-------1-0-5---2----||
E ||---------3-0-----------3---0-------------3-0-----------3---0----||

e ||----------------------------------------------------------------||
B ||----------------------------------------------------------------||
G*||7-------------------------------7-------------------------------||*
D*||5----8-7-5-2---5-2--5-2---------5----8-7-5-2---5-2--5-2---------||*
A ||-----6-5-3-0---3-0--3-0--------------6-5-3-0---3-0--3-0---------||
E ||----------------------------------------------------------------||

e ||----------------------------------------------------------------||
B ||3----------------3--------------3----------------3--------------||
G*||2----------------2--------------2----------------2--------------||*
D*||0----3-0---------0-3-0----------0----3-0---------0-3-0----------||*
A ||-----1-0-5-2-------1-0-5---2---------1-0-5-2-------1-0-5---2----||
E ||---------3-0-----------3---0-------------3-0-----------3---0----||


*Bridge lick*


Interlude
Bass riff background
e ||--------------------------------||
B ||--------------------------------||
G*||--------------------------------||*
D*||--------------------------------||*
A ||--------------------------------||
E ||3-0-0-0-3-0-0-0-3-0-0-0-3-0-5-0-||


Guitar
e ||----------------------------------------------------------------||
B ||----------------------------------------------------------------||
G*||----------------------------------------------------------------||*
D*||--------------------------------------------------------2-------||*
A ||2-------------------------------2-2-----2-2----2-2----2-0-2-----||
E ||0-------------------------------3-0-----3-0----3-0----3---0-----||
    p.m. whole strofe

e ||----------------------------------------------------------------||
B ||------------------------------------------------3---------------||
G*||------------------------------------------------2---------------||*
D*||----------------------2-------------------------0----3-0--------||*
A ||----------------2---2-0-2-2--------------------------1-0-5-2----||
E ||----------------0---3---3-0------------------------------3-0----||

 e |----------------------------------------------------------------|
 B |----------------------------------------------------------------|
 G |----------------------------------------------------------------|
 D |------2---------------2---------------2---------------2---------|
 A |2---2-0-2-2-----2---2-0-2-2-----2---2-0-2-2-----2---2-0-2-2-----|
 E |0---3---3-0-----0---3---3-0-----0---3---3-0-----0---3---3-0-----|

  e ----------------------------------------------------------------|
  B ----------------------------------------------------------------|
  G ----------------------------------------------------------------|
  D ------2---------------2---------------2-------2-------2---------|
  A 2---2-0-2-2-----2---2-0-2-2-----2---2-0-2-2-2-0-2-2-2-0-2-2--2--|
  E 0---3---3-0-----0---3---3-0-----0---3---3-0-3---3-0-3---3-0--0--|


Solo and outro
e ||----------------------------------------------------------------||
B ||3---------------3---------------3---------------3---------------||
G*||2---------------2---------------2---------------2---------------||*
D*||0----3-0--------0-3-0-----------0----3-0--------0-3-0-----------||*
A ||-----1-0-5-2------1-0-5---2----------1-0-5-2------1-0-5---2-----||
E ||---------3-0----------3---0--------------3-0----------3---0-----||

e ||----------------------------------------------------------------||
B ||--------------------------------3---------------3---------------||
G*||--------------------------------2---------------2---------------||*
D*||---------------------------2----0----3-0--------0-3-0-----------||*
A ||2-2-2-2-2-2-2-2-2-2-2-2-2--0---------1-0-5-2------1-0-5---2-----||
E ||3-0-0-0-3-0-0-0-3-0-0-0-3----------------3-0----------3---0-----||

e ||----------------------------------------------------------------||
B ||3---------------3---------------3---------------3---------------||
G*||2---------------2---------------2---------------2---------------||*
D*||0----3-0--------0-3-0-----------0----3-0--------0-3-0-----------||*
A ||-----1-0-5-2------1-0-5---2----------1-0-5-2------1-0-5---2-----||
E ||---------3-0----------3---0--------------3-0----------3---0-----||
Tap to rate this tab
# A B C D E F G H I J K L M N O P Q R S T U V W X Y Z