Song name
# A B C D E F G H I J K L M N O P Q R S T U V W X Y Z

Ac Dc - This Means War tab

Song: This Means War
Artist: AC/DC
Album: Blow Up Your Video
Year: 1988
Tuning: Standart (E A D G B e)


p1:
e|---------------------|
B|-------------8-------|
G|--9-----7----7---9---|
D|--9-----7----5---9---|
A|--7-----5--------7---|
E|-----------------0---|

p2: 
         |         x2        |                |                   |
A|-0-0-0-|--10-0-9-0-0-3-0-0-|-10-0-9-0-0-3-0-|-9-10-0-9-0-0-3-0-0|
     
repeat as many times as needed (exept the 0-0-0 part, that is only the first time)         

p3:
e|---------------------|---------------------|
B|-------------8-------|-------------6-------|
G|--9-----7----7---9---|--7-----5----5---7---|
D|--9-----7----5---9---|--7-----5----3---7---|
A|--7-----5--------7---|--5-----3--------5---|
E|---------------------|---------------------|


Solo (couldnt figure out, sorry)
Tap to rate this tab
# A B C D E F G H I J K L M N O P Q R S T U V W X Y Z