Song name
# A B C D E F G H I J K L M N O P Q R S T U V W X Y Z

Ac Dc - Riff Raff tab

RIFF RAFF
   (Let Ring)
intro                                              ......................
E--------||-------------------------||----------------------------|
B--------||-------------------------||----------------------------|
G--------||-7-------7------7------7-||-----7------7---------------| 
D--------||-4-------5------4------5-||-----4------5---------------| 
A----0-0-||-----0-0----0-0----0-0---||-0-0----0-0-----------------|
E--------||-------------------------||----------------------------|
....                                        ........      ........
E--------||-------------------------||----------------------------|
B--------||-------------------------||----------------------------|
G--------||-7-------7-------7-----7-||-----7---------2-0-2--------|
D--------||-4-------5-------4-----5-||-----4---------2-0-2--------| reapeat from start
A----0-0-||----0-0-----0-0----0-0---||-0-0-----------0-0-0--------| play twice
E--------||-------------------------||----------------------------| 


thats the intro! listen to the song and youll realise that it picks up speed, you should have no problem working that out!
it can be tricky to keep up with actual speed of Angus so play it slowly and gradually build up your own speed!

riff1
E-------------|-------------------------------|
B-------------|-------------------------------|
G----2--2--2--|-------------------------------|reapeat 8 times
D----2--2--2--|-----------2--4---5--2---------|
A----0--0--0--|--0--3--4-------3-------3--0---|
E-------------|-------------------------------|

riff 2(chorus)
E----2---3---2----|------------2---2---3---2----3---2--------| now play riff 1 over again 
B----3---3---3----|------------3---3---3---3----3---3--------| then reapeat 
G----2---2---2----|------------2---2---2---2----2---2----2---| once more 
D----0---0---0----|------------0---0---0---0----0---0----2---|
A-----------------|--------------------------------------0---|
E-----------------|------------------------------------------|

riff 3
E----------------------|-----------------------|
B----------------------|-----------------------| 
G----------------------|-----------------------|
D------5/6----5/6-----5/6-----5/6-----5--6-----|  
A------4/5----4/5-----4/5-----4/5--------------|
E---0------0-------0---|---0-------0-------0---|

E----------------------|------------------------|
B----------------------|------------------------| 
G----------------------|---------------------2--|
D------5/6----5/6-----5/6-----5/6-----5--6---2--|now play riff 1 4 times  
A------4/5----4/5-----4/5-----4/5------------0--|
E---0------0-------0---|---0-------0------------|

main riff     .............................             .....................                                       
E--------------------------------|--------------------|-------------------------------|
B--------------------------------|--------------------|-------------------------------|
G---0^2--------------------------|----------------0^2-|-------------------------0^2---|
D---0^2--------------------------|----------------0^2-|-------------------------0^2---|
A---0----------------------------|----------------0---|-------------------------0-----|
E--------------------------------|--------------------|-------------------------------|
        .....................................       ............                      ...
E--------------------------------|--------------------|-------------------------------|
B--------------------------------|--------------------|------------7^(8)7/\/----------|
G---0^2--------------------------|------------------0-^-2----------7^(8)7/\/---0-^-2--|
D---0^2--------------------------|------------------0-^-2----------------------0-^-2--|
A---0----------------------------|------------------0-|------------------------0------|
E--------------------------------|--------------------|-------------------------------|
       "Seen it on the telivision every day   heard it on the radio"
       "it aint humid but it shore is hot     down in mexico"

E------------|----------|----------|------------|-----------------------|
B---7^(8)7---|----------|--7^(8)7--|----------7^|(8)7/\/\/--------------|
G---7^(8)7---|--0^2-----|--7^(8)7--|-0^2------7^|(8)7/\/\/-----5--------|back 
D------------|--0^2-----|----------|-0^2--------|-----------------7-----|riff 
A------------|--0-------|----------|-0----------|-------------------3^--|
E------------|----------|----------|------------|-----------------------|

Chorus(riff2)
Riff1
solo 1
PM. . 
|---------------------------------------------------------------------------------------------------------------------------|
|----------------------------------------------------------------------------------------------------------------------5----|
|-----------------------5---------------------5------5-----5----------------4-5-4---------4-5----4-5---4-5-4---4-5-4-7------|
|-------------------------7----7/\/\/------------7-----7-----7-7-7/\/\/\/---------7/\/\/\-----7------7-------7--------------|
|--7-7-7-7-/\/\/---x-7------------------x-x-x------x-----x------------------------------------------------------------------|
|---------------------------------------------------------------------------------------------------------------------------|


|------------------------10-8-7---8-7--------------------------------------------------------------------------------5--
|--4-------------------8--------10----10-8-7---8-7------------------------------------------------------5-8-5-7--6-8----
|----7-5-4-----------------------------------9-----9-7-7/5-7---5-4---------------------------7---6-6-7------------------
|----------7-7-/\/\/-----------------------------------------------7-5-7-5-4-------4-7-5-7/9---9------------------------
|----------------------------------------------------------------------------7-5-7--------------------------------------
|-----------------------------------------------------------------------------------------------------------------------

   
|--8-5-7-5-8-5-7-5-8-5-7-5-8-8-7-5-5-7-5-8-5-5-5-7-5-8-5-5-7-5-8-5-7-7-5-7-5-8-7-5-8-\-10--8----/\/\/--8-9-----------12/\/-----
|--------------------------------------------------------------------------------------------10/-----------10-10--13-----------
|------------------------------------------------------------------------------------------------------------------------14----
|------------------------------------------------------------------------------------------------------------------------------
|------------------------------------------------------------------------------------------------------------------------------
|------------------------------------------------------------------------------------------------------------------------------

|-12-15-12-13-15-12---13-15-12-14-12-15-12-14-12-15-12-14-12-15-12-14-12-15-12-15-\---|
|-------------------------------------------------------------------------------------|
|-------------------------------------------------------------------------------------|
|-------------------------------------------------------------------------------------|
|-------------------------------------------------------------------------------------|
|-------------------------------------------------------------------------------------|

E----------------------|-----------------------|
B----------------------|-----------------------| 
G----------------------|-----------------------|
D------5/6----5/6-----5/6-----5/6-----5--6-----|  
A------4/5----4/5-----4/5-----4/5--------------|
E---0------0-------0---|---0-------0-------0---|

solo 2

|--14-16----0-9-0-7-0----------------------------------------------------------------------------------------5---------|
|--------15-----------7-/\/\/\/\---8-7-----------7-8-5--7-8-5--7-8-5--7-8-5--7-8-5--7-8-5--7-7-/\/\/\/---8-7-5---------|
|--------------------------------------9--7-8-5------------------------------------------------------------------------|
|----------------------------------------------------------------------------------------------------------------------|
|----------------------------------------------------------------------------------------------------------------------|
|----------------------------------------------------------------------------------------------------------------------|

|---------------------5-8-5--7-5---5---5--------------------------------------8\/\/\/-5------------------------------------|
|-8-7-5--7-8-7-5--7-8------------8---8---8-5-8-5---5------------------------------------8-8/10-8-7--8-7-5-7-7/\/\---5-7-7--|
|------------------------------------------------8---8-7-5---7-5---7-5-----------------------------------------------------|
|----------------------------------------------------------7-----7-----7-5-/-----------------------------------------------|
|--------------------------------------------------------------------------------------------------------------------------|
|--------------------------------------------------------------------------------------------------------------------------|

|-------------------------------------------------------------------------12^--12--11-10-11-10--------------------------|
|--5-------------------------------------------------------------------10---------------------13---12-10--12-^---10\----|
|------5-7-5-----------------2-4-x-2-----------2/\/\/------2/\/\/----/--------------------------------------------------|
|----7--------5-5--4/2-4-------------4-2--------------------------------------------------------------------------------|
|------------------------3-4-------------3-0----------3-0---------------------------------------------------------------|
|--------------------------------------------------------------------------------------------------------------------0--|

E----------------------|-----------------------|
B----------------------|-----------------------| 
G----------------------|-----------------------|
D------5/6----5/6-----5/6-----5/6-----5--6-----|  
A------4/5----4/5-----4/5-----4/5--------------|
E---0------0-------0---|---0-------0-------0---|

|-------------------------------------------------------------------|
|---17------5------7-------9-9-------9---10-10------12-12-12--------|
|---17------5------7-------9-9-------9---10-10------12-12-12--------|
|---17------5------7-------9-9-------9---10-10------12-12-12--------|
|-------------------------------------------------------------------|
|-------------------------------------------------------------------|

E--------||-------------------------||----------------------------|
B--------||-------------------------||----------------------------|
G--------||-7-------7------7------7-||-----7------7---------------| 
D--------||-4-------5------4------5-||-----4------5---------------| 
A----0-0-||-----0-0----0-0----0-0---||-0-0----0-0-----------------|
E--------||-------------------------||----------------------------|

you know where it goes from here!

outro
   free time(tremolo pick)
   ******************* 
|--2-----------------------------------|
|--2-----------------------------------|
|--2-------------------14--14--14/--2--|
|--2-----------4--2----11--12--11---2--|
|--0---3--4--0------3--0---0---0----0--|
|--------------------------------------|
Tap to rate this tab
 
# A B C D E F G H I J K L M N O P Q R S T U V W X Y Z