Song name
# A B C D E F G H I J K L M N O P Q R S T U V W X Y Z

Ac Dc - Walk All Over You tab

----------------------------------------------------------------------------
			     AC DC - WALK ALL OVER YOU
----------------------------------------------------------------------------
Tabbed by: CHRIS HAMMOND ( BIG FAT TURD 
Tuning:STANDARD
                    I WROTE THIS TAB COMPLETELY BY EAR
                       AND TO ME IT SOUNDS PERFECT

                        THE ORDER IS AT THE BOTTOM   
      \/\/\/\/\/\/\/\/\/\/\/\/\/\/\/\-/\/\/\/\/\/\/\/\/\/\/\/\/\/\/\/\/\/
      /\/\/\/\/\/\/ NOTE: THIS TAB DOES INCLUDE THE SOLOS \/\/\/\/\/\/\/\
      \/\/\/\/\/\/\/\/\/\/\/\/\/\/\/\-/\/\/\/\/\/\/\/\/\/\/\/\/\/\/\/\/\/  

                                INTRO

e|-------------------------------------|
B|-------------------------------------|
G|--------------------------7----------| 
D|----2-------------5-------7------7---|
A|----2-------------5-------5------7---|
E|----0-----0--2----3--------------5---|

                                RIFF 1

e|----------------------------|
B|----------------------------|
G|-------------7-------7-6----|
D|---2----5----7---7---7-6----|
A|---2----5----5---7---5-4----|
E|---0----3--------5----------|
                  
                                VERSE

                     
e|--------------------------------------|
B|--------------------------------------|
G|----------------------------7----7-7--|
D|----2------------5--5--5----7----7-7--|
A|----2------------5--5--5----5----5-5--|
E|----0------------3--3--3--------------|

                     RIFF 2
e|--------------------------------|
B|--------------------------------|
G|----------------7-----7-----7---|
D|--7----------7--7--7--7--7--7---|
A|--7----------7--5--7--5--7--5---|
E|--5----------5-----5-----5------|

                     RIFF 3
                             
e|------------------------|
B|------------------------|
G|---------------------7--|
D|---2-------------5---7--|
A|---2-------------5---5--|
E|---0-----0--2----3------|

                    BRIDGE
e|-------------------------------------------------------------------------|
B|-------------------------------------------------------------------------|
G|-------------------------------------------------------------------------|
D|-5--5--5--5--5--5---7--7--7--7--7--7---5--5--5--5--5--5--7--7--7--9--9-9-|
A|-5--5--5--5--5--5---7--7--7--7--7--7---5--5--5--5--5--5--7--7--7--9--9-9-|
E|-3--3--3--3--3--3---5--5--5--5--5--5---3--3--3--3--3--3--5--5--5--7--7-7-|

                     VERSE 2

e|---------------------------------------------------|
B|---------------------------------------------------|
G|-----------------------------------------7----7-7--|
D|----2--2-2--2-2--2-2--2-2--2--5--5--5----7----7-7--|
A|----2--2-2--2-2--2-2--2-2--2--5--5--5----5----5-5--|
E|----0--0-0--0-0--0-0--0-0--0--3--3--3--------------|

                     OUTRO
e|-------------------------------------------------|
B|-------------------------------------------------|
G|-------------------------------------------------|
D|-222222222222222222222222222222---------------2--|
A|-222222222222222222222222222222---------------2--|
E|-000000000000000000000000000000---------------0--|


===================--------ORDER-------================
INTRO   X3
RIFF 1  X8
VERSE   X3
RIFF 2  X1
VERSE   X3
RIFF 2  X1
RIFF 3  X3
RIFF 2  X1
RIFF 1  X4 ( THROUGH SOLO 1 )
VERSE   X3
RIFF 2  X1
RIFF 3  X3
RIFF 2  X1
RIFF 1  X8 ( THROUGH SOLO 2 )
BRIDGE  X1 ( THROUGH SOLO 2 )
RIFF 1  X4 ( THROUGH SOLO 2 )
VERSE 2 X3 
RIFF 2  X1
INTRO   X3
OUTRO   X1

| /  slide up
| \  slide down
| h  hammer-on
| p  pull-off
| ~  vibrato
| +  harmonic
| x  Mute note
============================================================================
Tap to rate this tab
# A B C D E F G H I J K L M N O P Q R S T U V W X Y Z