Song name
# A B C D E F G H I J K L M N O P Q R S T U V W X Y Z

Ac Dc - Rock N Roll Train tab

ROck and roll train Intro Riff  and chours

e|----------------------------------------------|
B|---3----3----3--------3-3-3-3-3-3-3-3-3-------|
G|-2-2--2-2----2--------2-0-0-0-0-2-2-2-2-2-2-2-|  Angus only... then band
D|-2-0--2-0----0--------0-0-0-0-0-0-0-0-0-2-2-2-| 
A|-0-0--0-0----0----------x-x-x-x---------0-0-0-|
E|------------------------3-3-3-3---------------|



verse


e|------------------| |------------------|
B|---3---3----3-----| |---3---3----------|
G|-2-2-2-2----2-----| |-2-2-2-2----2-----| x2              
D|-2-4-2-4----4-----| |-2-4-2-4----2-----|
A|-0-0-0-0----0-----| |-0-0-0-0----0-----|
E|------------------| |------------------|  
      

pre chourus   

    angus
|------------------------------|
|------------------------------|
|-7-9-9-5-5-7-7----7-7-7-7-----|
|-7-7-7-5-5-5-5----5-7-5-7-----|
|----------------5-5-5-5-5-----|
|------------------------------|   


|-----------------------------------------------|
|-----------------------------------------------|
|-7-9-9-5-5-7-7----7-7-7-7-7-7------------------|
|-7-7-7-5-5-5-5----5-7-5-7-5-7---7-7-7-7-7-7-7--|       
|----------------5-5-5-5-5-5-5-5-5-5-5-5-5-5-5--|
|-----------------------------------------------|


     malcom

|------------------3-3-3-3-----------------------------| 
|---3---3-3----3-3-3-3-3-3-3-3-3-3---------------------| 
|-2-2-2-2-2----2-2-0-0-0-0-2-2-2-2-2-2-2---------------| 
|-2-0-2-0-0----0-0-0-0-0-0-0-0-0-0-2-2-2---------------| 
|-0---0------------x-x-x-x---------0-0-0---------------| 
|------------------3-3-3-3-----------------------------|


Rhythm for solo

|---------3-3-3-3-------------------------------------------|
|---------3-3-3-3--3-3-3-3-2-2-2----------------------------|
|--2-2-2--0-0-0-0--2-2-2-2-2-2-2----------------------------|
|--2-2-2--0-0-0-0--4-4-4-4-0-0-0----------------------------|
|--0-0-0--x-x-x-x-------------------------------------------|
|---------3-3-3-3-------------------------------------------|



sorry couldnt do solo but i think this is most
Tap to rate this tab
# A B C D E F G H I J K L M N O P Q R S T U V W X Y Z