Song name
# A B C D E F G H I J K L M N O P Q R S T U V W X Y Z

Ac Dc - This Means War tab

Band: ACDC
Song: This Means War

This is a very rough tab, but I wanted to put it out there.


Intro:

e|----------------------------|
B|----------------------------|
G|---9~---7--12--9~-----------|
D|---9~---7--12--9~-----------|
A|---7~---5--10--7~-----------|
E|---0-----------0~-----------|



Main Riff (this is the riff played almost the entire song. it's really simple pull-offs):

e|--------------------------------|
B|--------------------------------|
G|--------------------------------|
D|--------------5p0--4p0--0-------|
A|---0--3p0-0---------------------|
E|--------------------------------|



Solo (it's mainly the E minor pentatonic scale with some crazy noisey whammy bits in 
between. this is a rough idea):

e|----12v~----12p10----------------15-12--10h12-------12~---|
B|------------------12p10-----------------------10h12-------|
G|------------------------12p9------------------------------|
D|----------------------------------------------------------|
A|----------------------------------------------------------|
E|----------------------------------------------------------|



Bridge (same as intro but faster):

e|----------------------------|
B|----------------------------|
G|---9~---7--12--9~-----------|
D|---9~---7--12--9~-----------|
A|---7~---5--10--7~-----------|
E|---0-----------0~-----------|



Outro:

Just go crazy with an A power chord

e|------------------------------------------|
B|------------------------------------------|
G|---2--2--2----2--2--2----2-2-2-2-2-2-2-2~-|
D|---2--2--2----2--2--2----2-2-2-2-2-2-2-2~-|
A|---0--0--0----0--0--0----0-0-0-0-0-0-0-0~-|
E|------------------------------------------|


END.
Tap to rate this tab
# A B C D E F G H I J K L M N O P Q R S T U V W X Y Z