Song name
# A B C D E F G H I J K L M N O P Q R S T U V W X Y Z

Ac Dc - Walk All Over You tab

WALK ALL OVER YOU  by  AC DC


Andy The Axman

This is a complete version of song........

Intro x4 
e|-----------------3--------------------------------------------------------|
B|-----------------3--------3-----------------------------------------------|
G|--1--------------0--------2--------2--------------------------------------|
D|--2--------------0--------0--------2--------------------------------------|
A|--2--------------x-----------------0--------------------------------------|
E|--0----------0-2-3--------------------------------------------------------|

INTERLUDE x8 
e|-------3-3----------------------------------------------------------------|
B|-------3-3-----3----------3-----------------------------------------------|
G|--1-1--0-0-----2----2-2---2----2------------------------------------------|
D|--2-2--0-0-----0----2-2---4----2------------------------------------------|
A|--2-2--x-x----------0----------0------------------------------------------|
E|--0-0--3-3----------------------------------------------------------------|

Verse- 1
 Outta my way i'm running high........
e|------------------------------3---3-3---3-3----3-------------------------|
B|------------------------------3---3-3---3-3----3--3--3--3--3-------------|
G|--1---------------------------0---0-0---0-0----0--2--2--2--2------1-------|
D|--2---------------------------0---0-0---0-0----0--0--0--0--0------2-------|
A|--2---------------------------x---x-x---x-x----x------------------2-------|
E|--0---------------------------3---3-3---3-3----3------------------0-------|

e|------------------------------3---3-3---3-3----3-------------------------|
B|------------------------------3---3-3---3-3----3--3--3--3--3-------------|
G|--1---------------------------0---0-0---0-0----0--2--2--2--2------1-------|
D|--2---------------------------0---0-0---0-0----0--0--0--0--0------2-------|
A|--2---------------------------x---x-x---x-x----x------------------2-------|
E|--0---------------------------3---3-3---3-3----3------------------0-------|
end of verse: x 1
e|------------------------------3---3-3---3-3----3-------------------------|
B|------------------------------3---3-3---3-3----3--3--3--3--3-------------|
G|--1---------------------------0---0-0---0-0----0--2--2--2--2------2-------|
D|--2---------------------------0---0-0---0-0----0--0--0--0--0------2-------|
A|--2---------------------------x---x-x---x-x----x------------------0-------|
E|--0---------------------------3---3-3---3-3----3-------------------------|

ain't a looking for a womens love....

BRIDGE
e|--------------------------------------------------------------------------|
B|---------------------------3-------3--------------------------------------|
G|-----------------------2---2---2---2---2--2-------------------------------|
D|-----------------------2---4(0)2---4(0)2--2------------------------------|
A|-----------------------0-------0-------0--0-------------------------------|
E|--------------------------------------------------------------------------|

Verse -2
e|------------------------------3---3-3---3-3----3-------------------------|
B|------------------------------3---3-3---3-3----3--3--3--3--3-------------|
G|--1---------------------------0---0-0---0-0----0--2--2--2--2------1-------|
D|--2---------------------------0---0-0---0-0----0--0--0--0--0------2-------|
A|--2---------------------------x---x-x---x-x----x------------------2-------|
E|--0-----------------------0-2-3---3-3---3-3----3------------------0-------|

e|------------------------------3---3-3---3-3----3-------------------------|
B|------------------------------3---3-3---3-3----3--3--3--3--3-------------|
G|--1---------------------------0---0-0---0-0----0--2--2--2--2------1-------|
D|--2---------------------------0---0-0---0-0----0--0--0--0--0------2-------|
A|--2---------------------------x---x-x---x-x----x------------------2-------|
E|--0---------------------------3---3-3---3-3----3------------------0-------|

e|------------------------------3---3-3---3-3----3-------------------------|
B|------------------------------3---3-3---3-3----3--3--3--3--3-------------|
G|--1---------------------------0---0-0---0-0----0--2--2--2--2------2-------|
D|--2---------------------------0---0-0---0-0----0--0--0--0--0------2-------|
A|--2---------------------------x---x-x---x-x----x------------------0-------|
E|--0-----------------------0-2-3---3-3---3-3----3--------------------------|


BRIDGE
e|--------------------------------------------------------------------------|
B|---------------------------3-------3--------------------------------------|
G|-----------------------2---2---2---2---2--2-------------------------------|
D|-----------------------2---4(0)2---4(0)2--2------------------------------|
A|-----------------------0-------0-------0--0-------------------------------|
E|--------------------------------------------------------------------------|


chorus 
x 3

e|-----------------3--------------------------------------------------------|
B|-----------------3--------3-----------------------------------------------|
G|--1--------------0--------2--------1--------------------------------------|
D|--2--------------0--------0--------2--------------------------------------|
A|--2--------------x-----------------2--------------------------------------|
E|--0----------0-2-3-----------------0--------------------------------------|

x 1
e|-----------------3--------------------------------------------------------|
B|-----------------3--------3-----------------------------------------------|
G|--1--------------0--------2--------2--------------------------------------|
D|--2--------------0--------0--------2--------------------------------------|
A|--2--------------x-----------------0--------------------------------------|
E|--0----------0-2-3--------------------------------------------------------|


BRIDGE
e|--------------------------------------------------------------------------|
B|---------------------------3-------3--------------------------------------|
G|-----------------------2---2---2---2---2--2-------------------------------|
D|-----------------------2---4(0)2---4(0)2--2-------------------------------|
A|-----------------------0-------0-------0--0-------------------------------|
E|--------------------------------------------------------------------------|

INTERLUDE SOLO 1 x4
e|-------3-3----------------------------------------------------------------|
B|-------3-3-----3----------3-----------------------------------------------|
G|--1-1--0-0-----2----2-2---2----2------------------------------------------|
D|--2-2--0-0-----0----2-2---4----2------------------------------------------|
A|--2-2--x-x----------0-0--------0------------------------------------------|
E|--0-0--3-3----------------------------------------------------------------|

Verse - 3
e|------------------------------3---3-3---3-3----3--------------------------|
B|------------------------------3---3-3---3-3----3--3--3--3--3--------------|
G|--1---------------------------0---0-0---0-0----0--2--2--2--2------1-------|
D|--2---------------------------0---0-0---0-0----0--0--0--0--0------2-------|
A|--2---------------------------x---x-x---x-x----x------------------2-------|
E|--0-----------------------0-2-3---3-3---3-3----3------------------0-------|

e|------------------------------3---3-3---3-3----3--------------------------|
B|------------------------------3---3-3---3-3----3--3--3--3--3--------------|
G|--1---------------------------0---0-0---0-0----0--2--2--2--2------1-------|
D|--2---------------------------0---0-0---0-0----0--0--0--0--0------2-------|
A|--2---------------------------x---x-x---x-x----x------------------2-------|
E|--0---------------------------3---3-3---3-3----3------------------0-------|

e|------------------------------3---3-3---3-3----3--------------------------|
B|------------------------------3---3-3---3-3----3--3--3--3--3--------------|
G|--1---------------------------0---0-0---0-0----0--2--2--2--2------2-------|
D|--2---------------------------0---0-0---0-0----0--0--0--0--0------2-------|
A|--2---------------------------x---x-x---x-x----x------------------0-------|
E|--0-----------------------0-2-3---3-3---3-3----3--------------------------|



BRIDGE
e|--------------------------------------------------------------------------|
B|---------------------------3-------3--------------------------------------|
G|-----------------------2---2---2---2---2--2-------------------------------|
D|-----------------------2---4(0)2---4(0)2--2-------------------------------|
A|-----------------------0-------0-------0--0-------------------------------|
E|--------------------------------------------------------------------------|


chorus 
x 3

e|-----------------3--------------------------------------------------------|
B|-----------------3--------3-----------------------------------------------|
G|--1--------------0--------2--------1--------------------------------------|
D|--2--------------0--------0--------2--------------------------------------|
A|--2--------------x-----------------2--------------------------------------|
E|--0----------0-2-3-----------------0--------------------------------------|

x 1
e|-----------------3--------------------------------------------------------|
B|-----------------3--------3-----------------------------------------------|
G|--1--------------0--------2--------2--------------------------------------|
D|--2--------------0--------0--------2--------------------------------------|
A|--2--------------x-----------------0--------------------------------------|
E|--0----------0-2-3--------------------------------------------------------|

MINI-BRIDGE
e|--------------------------------------------------------------------------|
B|---------------------------3----------------------------------------------|
G|-----------------------2---2---2------------------------------------------|
D|-----------------------2---4(0)2------------------------------------------|
A|-----------------------0-------0------------------------------------------|
E|--------------------------------------------------------------------------|

BRIDGE
e|--------------------------------------------------------------------------|
B|---------------------------3-------3--------------------------------------|
G|-----------------------2---2---2---2---2--2-------------------------------|
D|-----------------------2---4(0)2---4(0)2--2-------------------------------|
A|-----------------------0-------0-------0--0-------------------------------|
E|--------------------------------------------------------------------------|

INTERLUDE SOLO 2  x8
e|-------3-3----------------------------------------------------------------|
B|-------3-3-----3----------3-----------------------------------------------|
G|--1-1--0-0-----2----2-2---2----2------------------------------------------|
D|--2-2--0-0-----0----2-2---4----2------------------------------------------|
A|--2-2--x-x----------0-0--------0------------------------------------------|
E|--0-0--3-3----------------------------------------------------------------|

LINK
e|--------------------3-3-3-3-3-3------------------------------------------|
B|--------------------3-3-3-3-3-3------------------------------------------|
G|--------------------0-0-0-0-0-0---2-2-2-2-2-2----------------------------
D|--------------------0-0-0-0-0-0---2-2-2-2-2-2----------------------------
A|--------------------x-x-x-x-x-x---0-0-0-0-0-0----------------------------
E|--------------------3-3-3-3-3-3-------------------------------------------

e|--------------------3-3-3-3-3-3------------------------------------------|
B|--------------------3-3-3-3-3-3------------------------------------------|
G|--------------------0-0-0-0-0-0---2-2-2-4-4-4----------------------------
D|--------------------0-0-0-0-0-0---2-2-2-4-4-4----------------------------
A|--------------------x-x-x-x-x-x---0-0-0-2-2-2----------------------------
E|--------------------3-3-3-3-3-3-------------------------------------------



INTERLUDE SOLO 3  x4
e|-------3-3----------------------------------------------------------------|
B|-------3-3-----3----------3-----------------------------------------------|
G|--1-1--0-0-----2----2-2---2----2------------------------------------------|
D|--2-2--0-0-----0----2-2---4----2------------------------------------------|
A|--2-2--x-x----------0-0--------0------------------------------------------|
E|--0-0--3-3----------------------------------------------------------------|

Verse 4   
e|--------------------------------3---3-3---3-3----3-----------------------|
B|--------------------------------3---3-3---3-3----3--3--3--3--3-----------|
G|--1-1-1-1-1-1-1-1-1-1-----------0---0-0---0-0----0--2--2--2--2-----------|
D|--2-2-2-2-2-2-2-2-2-2-----------0---0-0---0-0----0--0--0--0--0-----------|
A|--2-2-2-2-2-2-2-2-2-2-----------x---x-x---x-x----x-----------------------|
E|--0-0-0-0-0-0-0-0-0-0-------0-2-3---3-3---3-3----3-----------------------|
   
e|--------------------------------3---3-3---3-3----3-----------------------|
B|--------------------------------3---3-3---3-3----3--3--3--3--3-----------|
G|--1-1-1-1-1-1-1-1-1-1-----------0---0-0---0-0----0--2--2--2--2-----------|
D|--2-2-2-2-2-2-2-2-2-2-----------0---0-0---0-0----0--0--0--0--0-----------|
A|--2-2-2-2-2-2-2-2-2-2-----------x---x-x---x-x----x-----------------------|
E|--0-0-0-0-0-0-0-0-0-0-------0-2-3---3-3---3-3----3-----------------------|

e|--------------------------------3---3-3---3-3----3-----------------------|
B|--------------------------------3---3-3---3-3----3--3--3--3--3-----------|
G|--1-1-1-1-1-1-1-1-1-1-----------0---0-0---0-0----0--2--2--2--2--2--------|
D|--2-2-2-2-2-2-2-2-2-2-----------0---0-0---0-0----0--0--0--0--0--2--------|
A|--2-2-2-2-2-2-2-2-2-2-----------x---x-x---x-x----x--------------0--------|
E|--0-0-0-0-0-0-0-0-0-0-------0-2-3---3-3---3-3----3-----------------------|

BRIDGE
e|--------------------------------------------------------------------------|
B|---------------------------3-------3--------------------------------------|
G|-----------------------2---2---2---2---2--2-------------------------------|
D|-----------------------2---4(0)2---4(0)2--2------------------------------|
A|-----------------------0-------0-------0--0-------------------------------|
E|--------------------------------------------------------------------------|

END CHORUS

e|-----------------3--------------------------------------------------------|
B|-----------------3--------3-----------------------------------------------|
G|--1--------------0--------2--------1--------------------------------------|
D|--2--------------0--------0--------2--------------------------------------|
A|--2--------------x-----------------2--------------------------------------|
E|--0----------0-2-3-----------------0--------------------------------------|

e|-----------------3--------------------------------------------------------|
B|-----------------3--------3-----------------------------------------------|
G|--1--------------0--------2--------1--------------------------------------|
D|--2--------------0--------0--------2--------------------------------------|
A|--2--------------x-----------------2--------------------------------------|
E|--0----------0-2-3-----------------0--------------------------------------|

e|-----------------3--------------------------------------------------------|
B|-----------------3--------3 hold------------------------------------------|
G|--1--------------0--------2 hold-------1 repeat-lots fast-----------------|
D|--2--------------0--------0 hold-------2 repeat-lots fast ----------------|
A|--2--------------x---------------------2 repeat-lots fast ----------------|
E|--0----------0-2-3---------------------0 repeat-lots fast ----------------|

Tap to rate this tab
# A B C D E F G H I J K L M N O P Q R S T U V W X Y Z