Song name
# A B C D E F G H I J K L M N O P Q R S T U V W X Y Z

Ac Dc - Dirty Eyes tab

-----------------------------------------------------------------------------
                                           Dirty Eyes - AC/DC
-----------------------------------------------------------------------------
Tabbed by: Thunderbird16
E-mail: al.hint12@gmail.com

Tuning: Standard

Intro/Verse: (repeat throughout verse)
|--------------------------|
|--------------------------|
|--2-----------2-2---2---2-|
|--2-----------2-2-4-2-4-2-|
|--0-3-0-5-0-3-0-0-0-0-0-0-|
|--------------------------|

Bridge (into chorus):
|------------------2-2-2--------------------------------|
|------------------3-3-3--------------------------------|
|--2-----------2---2-2-2-----------2--------------------|
|--2-----------2---0-0-0-3-4-0-3-4-0--2-2-2-----------2-|
|--0-3-0-5-0-3-0----------------------2-2-2-----------2-|
|-------------------------------------0-0-0-3-4-0-3-4-0-|

Chorus:                                        Back to Verse
|--0-0-0-------0-0-0-------0-0-0-------------|------------------------------|
|--2-2-2-------2-2-2-------2-2-2-------------|------------------------------|
|--2-2-2-------2-2-2-------2-2-2-------------|-2-2---2---2-------------2----|
|--2-2-2-------2-2-2-------2-2-2-------------|-2-2-4-2-4-2-------------2----|
|--0-0-0-5-5-5-0-0-0-5-5-5-0-0-0-5-5-5-5-5-5-|-0-0-0-0-0-0-0-3-0-5-0-3-0----|
|--------3-2-3-------3-2-3-------3-2-3-2-3-4-|------------------------------|

Nothing changes throughout the song except for the chorus after Angus's solo, it's easy 
to work out once you've heard it.
Tap to rate this tab
# A B C D E F G H I J K L M N O P Q R S T U V W X Y Z