Song name
# A B C D E F G H I J K L M N O P Q R S T U V W X Y Z

Ac Dc - Lets Make It tab

Help us improve GuitareTab! Take a short survey!
AC/DC-Let's Make It
The Razor's Edge (1990) 
Transcribed by: playinbass1432
Email: playinbass1432@hotmail.com
 
Standard Tuning, both guitars (Malcolm=Top, Angus=Bottom)

Intro: 

   E5                G5                D5                A5
E|-----------------|-----------------|-----------------|-----------------|
B|-----------------|-----------------|-3---------------|-----------------|
G|-----------------|-----------------|-2---------------|-2---------------|
D|-2---------------|-5---------------|-0---------------|-2---------------|
A|-2---------------|-5---------------|-----------------|-0---------------|
E|-0---------------|-3---------------|-----------------|-----------------|
 |
E|-----------------|-----------------|-----------------|-----------------|
B|-----------------|-----------------|-3---------------|-----------------|
G|-------2---1-----|-------5---4---0-|-2---------------|-2-----7---6-----|
D|-2-------------2-|-5---------------|-0-----5---4---0-|-2-------------7-|
A|-2---------------|-5---------------|-----------------|-0---------------|
E|-0---------------|-3---------------|-----------------|-----------------|

   E5                G5                D5                A5
E|-----------------|-----------------|-----------------|-----------------|
B|-----------------|-----------------|-3---------------|-----------------|
G|-----------------|-----------------|-2---------------|-2---------------|
D|-2---------------|-5---------------|-0---------------|-2---------------|
A|-2---------------|-5---------------|-----------------|-0---------------|
E|-0---------------|-3---------------|-----------------|-----------------|
 |
E|-----------------|-----------------|-----------------|-----------------|
B|-----------------|-----------------|-3---------------|-----------------|
G|-------2---1-----|-------5---4---0-|-2---------------|-2---------------|
D|-2-------------2-|-5---------------|-0-----5---4---0-|-2---------------|
A|-2---------------|-5---------------|-----------------|-0---------------|
E|-0---------------|-3---------------|-----------------|-----------------|

   A5 
E|-----------------|
B|-----------------|
G|-----------------|
D|-2-2-2-2-2-2-2-2-|<----Both Guitars
A|-0-0-0-0-0-0-0-0-|
E|-----------------|


Verse 1: (Both Guitars)

   C5    F5          C5    G5          C5    F5  G5      F5    C5  G5
E|-----------------|-----------------|-----------------|-----------------|
B|-----------------|-----------------|-----------------|-----------------|
G|-5---------------|-5---------------|-5---------------|-------5---------|
D|-5-----3---------|-5-----5---------|-5-----3---5-----|-3-----5---5-----|
A|-3-----3---------|-3-----5---------|-3-----3---5-----|-3-----3---5-----|
E|-------1---------|-------3---------|-------1---3-----|-1---------3-----|

  C5    F5          C5    G5          C5    F5  G5      F5    C5  G5
E|-----------------|-----------------|-----------------|-----------------|
B|-----------------|-----------------|-----------------|-----------------|
G|-5---------------|-5---------------|-5---------------|-------5---------|
D|-5-----3---------|-5-----5---------|-5-----3---5-----|-3-----5---5-----|
A|-3-----3---------|-3-----5---------|-3-----3---5-----|-3-----3---5-----|
E|-------1---------|-------3---------|-------1---3-----|-1---------3-----|

  C5    F5  G5      C5    F5  G5     C5    F5  G5      F5    C5  G5
E|-----------------|-----------------|-----------------|-----------------|
B|-----------------|-----------------|-----------------|-----------------|
G|-5---------------|-5---------------|-5---------------|-------5---------|
D|-5-----3---5-----|-5-----3---5-----|-5-----3---5-----|-3-----5---5-----|
A|-3-----3---5-----|-3-----3---5-----|-3-----3---5-----|-3-----3---5-----|
E|-------1---3-----|-------1---3-----|-------1---3-----|-1---------3-----|

Chorus 1: (Both Guitars)

   D5     G5   A5    D5     G5   A5    D5     G5   A5   D5      G5 D
E|---------3-------|---------3-------|---------3-------|---------3-2-2-22|
B|-3-------3-------|-3-------3-------|-3-------3-------|-3-------3-3-3-33|
G|-2-------0---2---|-2-------0---2---|-2-------0---2---|-2-------0-2-2-22|
D|-0-------0---2-22|-0-------0---2-22|-0-------0---2-22|-0-------0-0-0-00|
A|-------------0-00|-------------0-00|-------------0-00|-----------------|
E|---------3-------|---------3-------|---------3-------|---------3-------|

   D5     G5   A5    D5     G5   A5    D5     G5   A5   D5      G5 D
E|---------3-------|---------3-------|---------3-------|---------3-2-2-22|
B|-3-------3-------|-3-------3-------|-3-------3-------|-3-------3-3-3-33|
G|-2-------0---2---|-2-------0---2---|-2-------0---2---|-2-------0-2-2-22|
D|-0-------0---2-22|-0-------0---2-22|-0-------0---2-22|-0-------0-0-0-00|
A|-------------0-00|-------------0-00|-------------0-00|-----------------|
E|---------3-------|---------3-------|---------3-------|---------3-------|

Verse 2: (Both Guitars)

   C5    F5          C5    G5          C5    F5  G5      F5    C5  G5
E|-----------------|-----------------|-----------------|-----------------|
B|-----------------|-----------------|-----------------|-----------------|
G|-5---------------|-5---------------|-5---------------|-------5---------|
D|-5-----3---------|-5-----5---------|-5-----3---5-----|-3-----5---5-----|
A|-3-----3---------|-3-----5---------|-3-----3---5-----|-3-----3---5-----|
E|-------1---------|-------3---------|-------1---3-----|-1---------3-----|

   C5    F5  G5      C5    F5  G5     C5    F5  G5       F5    E5  G5
E|-----------------|-----------------|-----------------|-----------------|
B|-----------------|-----------------|-----------------|-----------------|
G|-5---------------|-5---------------|-5---------------|-----------------|
D|-5-----3---5-----|-5-----3---5-----|-5-----3---5-----|-3-----2---5-----|
A|-3-----3---5-----|-3-----3---5-----|-3-----3---5-----|-3-----2---5-----|
E|-------1---3-----|-------1---3-----|-------1---3-----|-1-----0---3-----|

Chorus 2: (Both Guitars)

   D5     G5   A5    D5     G5   A5    D5     G5   A5   D5      G5 D
E|---------3-------|---------3-------|---------3-------|---------3-2-2-22|
B|-3-------3-------|-3-------3-------|-3-------3-------|-3-------3-3-3-33|
G|-2-------0---2---|-2-------0---2---|-2-------0---2---|-2-------0-2-2-22|
D|-0-------0---2-22|-0-------0---2-22|-0-------0---2-22|-0-------0-0-0-00|
A|-------------0-00|-------------0-00|-------------0-00|-----------------|
E|---------3-------|---------3-------|---------3-------|---------3-------|

   D5     G5   A5    D5     G5   A5    D5     G5   A5   D5      G5 D
E|---------3-------|---------3-------|---------3-------|---------3-2-2-22|
B|-3-------3-------|-3-------3-------|-3-------3-------|-3-------3-3-3-33|
G|-2-------0---2---|-2-------0---2---|-2-------0---2---|-2-------0-2-2-22|
D|-0-------0---2-22|-0-------0---2-22|-0-------0---2-22|-0-------0-0-0-00|
A|-------------0-00|-------------0-00|-------------0-00|-----------------|
E|---------3-------|---------3-------|---------3-------|---------3-------|

Bridge:

   E5                G5                D5                A5
E|-----------------|-----------------|-----------------|-----------------|
B|-----------------|-----------------|-3---------------|-----------------|
G|-------2---1-----|-------5---4---0-|-2---------------|-2----7---6------|
D|-2-------------2-|-5---------------|-0-----5---4---0-|-2-------------7-|
A|-2---------------|-5---------------|-----------------|-0---------------|
E|-0---------------|-3---------------|-----------------|-----------------|
 |
E|-0---------------|-3---------------|-----------------|-5---------------|
B|-----------------|-----------------|-3---------------|-----------------|
G|-------2---1-----|-------5---4---0-|-----------------|-------7---6-----|
D|---------------2-|-----------------|-------5---4---0-|---------------7-|
A|-----------------|-----------------|-----------------|-----------------|
E|-----------------|-----------------|-----------------|-----------------|

   E5                G5                D5                A5
E|-----------------|-----------------|-----------------|-----------------|
B|-----------------|-----------------|-3---------------|-----------------|
G|-------2---1-----|-------5---4---0-|-2---------------|-2---------------|
D|-2-------------2-|-5---------------|-0-----5---4---0-|-2---------------|
A|-2---------------|-5---------------|-----------------|-0---------------|
E|-0---------------|-3---------------|-----------------|-----------------|
 |
E|-0---------------|-3---------------|-----------------|-----------------|
B|-----------------|-----------------|-----------------|-----------------|
G|-------2---1-----|-------5---4---0-|-----------------|-2---------------|
D|---------------2-|-----------------|-------5---4---0-|-2---------------|
A|-----------------|-----------------|-----------------|-0---------------|
E|-----------------|-----------------|-----------------|-----------------|

E|-----------------|
B|-----------------|
G|-----------------|
D|-----------------|<----Both Guitars
A|-----------------|
E|-----------------|

Solo:

E|-------------------------------|
B|-11----------------------------|
G|-10b12--------8----------8b----|
D|----------------10~---10-------|
A|-------------------------------|
E|-------------------------------|

E|-----------------------8p6---6--------------------|
B|---------------------------8---8p6---6------------|
G|--------------------8--------------8---8b--5~~~~~~|
D|-8-8-8b---10-10-10--------------------------------|
A|--------------------------------------------------|
E|--------------------------------------------------|

E|-------------------------------------------|
B|-10b13--10b13--10b13-----------------------|
G|-----------------------8-------------------|
D|------------------------10~~~~10~~~10\\\---|
A|-------------------------------------------|
E|-------------------------------------------|

E|-------11b13---11b13-------16b18---15-------------------------|
B|-10-13----------------13-------------18-16----16b-------------|
G|-------------------------------------------17-----17~~~~\\\\\-|
D|--------------------------------------------------------------|
A|--------------------------------------------------------------|
E|--------------------------------------------------------------|

Under Solo:

   C5    F5          C5    F5          C5    F5  G5      F5    C5  G5
E|-----------------|-----------------|-----------------|-----------------|
B|-----------------|-----------------|-----------------|-----------------|
G|-5---------------|-5---------------|-5---------------|-------5---------|
D|-5-----3---------|-5-----3---5-----|-5-----3---5-----|-3-----5---5-----|
A|-3-----3---------|-3-----3---5-----|-3-----3---5-----|-3-----3---5-----|
E|-------1---------|-------1---3-----|-------1---3-----|-1---------3-----|

   C5    F5  G5      C5    F5  G5     C5    F5  G5       F5    E5  G5
E|-----------------|-----------------|-----------------|-----------------|
B|-----------------|-----------------|-----------------|-----------------|
G|-5---------------|-5---------------|-5---------------|-----------------|
D|-5-----3---------|-5-----3---5-----|-5-----3---5-----|-3-----2---5-----|
A|-3-----3---------|-3-----3---5-----|-3-----3---5-----|-3-----2---5-----|
E|-------1---------|-------1---3-----|-------1---3-----|-1-----0---3-----|

Chorus 3: (Both Guitars)

   D5     G5   A5    D5     G5   A5    D5     G5   A5   D5      G5 D
E|---------3-------|---------3-------|---------3-------|---------3-2-2-22|
B|-3-------3-------|-3-------3-------|-3-------3-------|-3-------3-3-3-33|
G|-2-------0---2---|-2-------0---2---|-2-------0---2---|-2-------0-2-2-22|
D|-0-------0---2-22|-0-------0---2-22|-0-------0---2-22|-0-------0-0-0-00|
A|-------------0-00|-------------0-00|-------------0-00|-----------------|
E|---------3-------|---------3-------|---------3-------|---------3-------|

   D5     G5   A5    D5     G5   A5    D5     G5   A5   D5      G5 D
E|---------3-------|---------3-------|---------3-------|---------3-2-2-22|
B|-3-------3-------|-3-------3-------|-3-------3-------|-3-------3-3-3-33|
G|-2-------0---2---|-2-------0---2---|-2-------0---2---|-2-------0-2-2-22|
D|-0-------0---2-22|-0-------0---2-22|-0-------0---2-22|-0-------0-0-0-00|
A|-------------0-00|-------------0-00|-------------0-00|-----------------|
E|---------3-------|---------3-------|---------3-------|---------3-------|

Bridge:

   E5                G5                D5                A5
E|-----------------|-----------------|-----------------|-----------------|
B|-----------------|-----------------|-3---------------|-----------------|
G|-------2---1-----|-------5---4---0-|-2---------------|-2----7---6------|
D|-2-------------2-|-5---------------|-0-----5---4---0-|-2-------------7-|
A|-2---------------|-5---------------|-----------------|-0---------------|
E|-0---------------|-3---------------|-----------------|-----------------|
 |
E|-0---------------|-3---------------|-----------------|-5---------------|
B|-----------------|-----------------|-3---------------|-----------------|
G|-------2---1-----|-------5---4---0-|-----------------|-------7---6-----|
D|---------------2-|-----------------|-------5---4---0-|---------------7-|
A|-----------------|-----------------|-----------------|-----------------|
E|-----------------|-----------------|-----------------|-----------------|

   E5                G5                D5                A5
E|-----------------|-----------------|-----------------|-----------------|
B|-----------------|-----------------|-3---------------|-----------------|
G|-------2---1-----|-------5---4---0-|-2---------------|-2---------------|
D|-2-------------2-|-5---------------|-0-----5---4---0-|-2---------------|
A|-2---------------|-5---------------|-----------------|-0---------------|
E|-0---------------|-3---------------|-----------------|-----------------|
 |
E|-0---------------|-3---------------|-----------------|-----------------|
B|-----------------|-----------------|--3--------------|-----------------|
G|-------2---1-----|-------5---4---0-|-----------------|-----------------|
D|---------------2-|-----------------|-------5---4---0-|-2-2-2-2-2-2-2-2-|
A|-----------------|-----------------|-----------------|-0-0-0-0-0-0-0-0-|
E|-----------------|-----------------|-----------------|-----------------|

E|-----------------|
B|-----------------|
G|-----------------|
D|-2-2-2-2-2-2-2-2-| Both guitars play last 2 bars
A|-0-0-0-0-0-0-0-0-| 
E|-----------------|

Outro: (Both Guitars)

   D5     G5   A5    D5     G5   A5    D5     G5   A5   D5      G5 D
E|---------3-------|---------3-------|---------3-------|---------3-2-2-22|
B|-3-------3-------|-3-------3-------|-3-------3-------|-3-------3-3-3-33|
G|-2-------0---2---|-2-------0---2---|-2-------0---2---|-2-------0-2-2-22|
D|-0-------0---2-22|-0-------0---2-22|-0-------0---2-22|-0-------0-0-0-00|
A|-------------0-00|-------------0-00|-------------0-00|-----------------|
E|---------3-------|---------3-------|---------3-------|---------3-------|

   D5     G5   A5    D5     G5   A5    D5     G5   A5   D5      G5 D
E|---------3-------|---------3-------|---------3-------|---------3-2-2-22|
B|-3-------3-------|-3-------3-------|-3-------3-------|-3-------3-3-3-33|
G|-2-------0---2---|-2-------0---2---|-2-------0---2---|-2-------0-2-2-22|
D|-0-------0---2-22|-0-------0---2-22|-0-------0---2-22|-0-------0-0-0-00|
A|-------------0-00|-------------0-00|-------------0-00|-----------------|
E|---------3-------|---------3-------|---------3-------|---------3-------|






Related for Lets Make It tab