Song name
# A B C D E F G H I J K L M N O P Q R S T U V W X Y Z

Ac Dc - Got You By The Balls tab

:::::::::::::::::::::::::
Got You By The Balls  AC/DC           Tab by Voytazz

/ = slide in
 = slide out
br = bend/release
h = hammer on

Main riff:

E||---------------------------|
B||---------------------------|
G||---2--------------2---2----|
D||-2-0-2-2-3-2--2---0-2-0----|
A||-0---0-0-5-0--0-5---0------|
E||----------------3----------|

Riff during verse:

E||-------------------------|
B||-------------------------|
G||---2--------------2---2--|
D||-2-0-2-2-3-2--2---0-2-0--|
A||-0---0-0-5-0--0-5---0----|
E||----------------3--------|

Pre chourus:

E||--------------------------------------------------------------------------|
B||--------------------------------------------------------------------------|
G||--------------------------------------------------------------------------|
D||-2-5--5--5--5-5-5-7--7--7--7-7-7-5--5--5--5-5-5--7--7---------------------|
A||-0-3--3--3--3-3-3-5--5--5--5-5-5-3--3--3--3-3-3--5--5--2-2-2-2-2-2-2-2--2-|
E||-------------------------------------------------------0-0-0-0-0-0-0-0--0-|

Chourus:
    3x
E||-----------------------------|
B||-----------------------------|
G||---2--------------2---2------|
D||-2-0-2-2-3-2--2---0-2-0------|
A||-0---0-0-5-0--0-5---0--------|
E||----------------3------------|

|--------------------------|
|--------------------------|
|---2---------------2------|
|-2-0-2-2-3-2--2----0--2---|
|-0---0-0-5-0--0-5-----0---|
|----------------3---------|

Riff during solo:

E||----------------|
B||----------------|
G||---2------------|
D||-2-0-2-2--3--2--|
A||-0---0-0--5--0--|
E||----------------|

|----------------------------------------|
|----------------------------------------|
|----2----2---2--2-4-5--2------------2---|
|-2--0--2-0-2-0--0-6-7--0----------2-0---|
|-0-----0---0--------------4-5-4-5-0-----|
|--------------------------2-3-2-3-------|
Solo


Chorus after solo:

E||-----------------------------|
B||-----------------------------|
G||---2--------------2---2------|
D||-2-0-2-2-3-2--2---0-2-0------|
A||-0---0-0-5-0--0-5---0--------|
E||----------------3------------|

Ending:

E||----------------|
B||----------------|
G||---2------------|
D||-2-0-2-2-2------|
A||-0---0-0-0------|
E||----------------|

AC/DC Rocks!
Tap to rate this tab
# A B C D E F G H I J K L M N O P Q R S T U V W X Y Z