Song name
# A B C D E F G H I J K L M N O P Q R S T U V W X Y Z

Ac Dc - Heatseeker tab

Ac Dc - Heatseeker

Standard Tuning

This song has a real cool beggining of the intro , I think so. And sorry if the
lyrics have to small spaces inbetween too :P. Please put in some comment and rate
please :)
so here it goes, ENJOY!

 h = hammer on
 p = pull off
 ~ = vibrato (hand)
 b = bend
 r = release
* *= pinch harmonic
/ \= slide up or down
( )= ghost note (partially implied)
U.b= Unison bend

Intro:

e-----|---------------|-----------------|----------------| this note is the
B-x---|--5------------|---5-------------|---5-5--5--5----| one you later 
G-x-4-|--4-4--4--4-2h-|-4-4-4--4--4--2h-|-4-4-4--4--4-0h-|<---hammer on to,
D-x-2-|--2-2--2--4-2--|-----5--2--2--2--|---2-2--2--2----| so it sould be, 
A-x-2-|---------------|-----------------|----------------| 0h1, just wanted 
E-----|---------------|-----------------|----------------| to make sure that
                                                          you get that thing

e---0----0--0----|----|----------|-----------|-----------|
B---0----0--0----|----|----------|-----------|-----------|
G-1------1-------|-4--|----------|-----------|-----------|
D-----x--------0-|-4--|----------|-----------|-----------|
A-----x--------0-|-2--|----------|-----------|-----------|
E----------------|----|----------|-----------|-----------|

 Rhy fig. 1
e-----------------|-----------------|-----------------|-----------------|
B-----------------|-----------------|-----------------|-----------------|
G---4---4---4-4---|-4-4-4-4-4---4-4-|---4---4---4-4---|-4-4-4-4-4---4-4-|
D---2h4-4---4-2h4-|-4-4-4-4-2-4-4-4-|---2h4-4---4-2h4-|-4-4-4-4-2h4-4-4-|
A-2-------2-------|-2---------------|-2-------2-------|-2---------------|
E-----------------|-----------------|-----------------|-----------------|
                                                         End of Rhy fig. 1
 Rhy fig. 2
e-5-------------|----------------|-5-------------|--------------|
B-5-----4-----9-|---9-9--9-9-9-9-|-5-----5-----9-|-9-9--9-9-9-9-|
G-2-----4-----9-|---9-9--9-9-9-9-|-2-----4-----9-|-9-9--9-9-9-9-|
D-2-----4-----9-|---9-9--9-9-9-9-|-2-----4-----9-|-9-9--9-9-9-9-|
A-0-----2-----7-|---7-7--7-7-7-7-|-0-----2-----7-|-7-7--7-7-7-7-|
E-------------0-|---0-0--0-0-0-0-|-------------0-|-0-0--0-0-0-0-|
                                           End of Rhy fig. 2

e-----------------|-----------------|-----------------|-----------------|
B-----------------|-----------------|-----------------|-----------------|
G---4---4---4-4---|-4-4-4-4-4---4-4-|---4---4---4-4---|-4-4-4-4-4---4-4-|
D---2h4-4---4-2h4-|-4-4-4-4-2-4-4-4-|---2h4-4---4-2h4-|-4-4-4-4-2h4-4-4-|
A-2-------2-------|-2---------------|-2-------2-------|-2---------------|
E-----------------|-----------------|-----------------|-----------------|
                                                       Ooh, gettin'

e------------------|------------------|------------------|-----------------|
B------------------|------------------|------------------|-----------------|
G-4-----4-----4----|---6-----4--------|-4-----4-----4----|---6-----4-------|
D-2-2-2-2-2-2-2--2-|-2-2-2-2-2-2-2--2-|-2-2-2-2-2-2-2--2-|-2-2-2-2-2-2-2--2|
A------------------|------------------|------------------|-----------------|
E------------------|------------------|------------------|-----------------|
 ready       to rock          gettin' ready        to roll           Gonna

 Rhy fig. 3
e------------------|------------------|------------------|-----------------|
B------------------|------------------|------------------|-----------------|
G-4-----4-----4----|---6-----4--------|-4-----4-----4----|---6-----4-------|
D-2-2-2-2-2-2-2--2-|-2-2-2-2-2-2-2--2-|-2-2-2-2-2-2-2--2-|-2-2-2-2-2-2-2--2|
A------------------|------------------|------------------|-----------------|
E------------------|------------------|------------------|-----------------|
 turn up  the heat               gonna fire up   the coal           I gotta
                                                            End of rhy fig.3

e-5-------------|----------------|-5-------------|--------------|
B-5-----4-----9-|---9-9--9-9-9-9-|-5-----5-----9-|-9-9--9-9-9-9-|
G-2-----4-----9-|---9-9--9-9-9-9-|-2-----4-----9-|-9-9--9-9-9-9-|
D-2-----4-----9-|---9-9--9-9-9-9-|-2-----4-----9-|-9-9--9-9-9-9-|
A-0-----2-----7-|---7-7--7-7-7-7-|-0-----2-----7-|-7-7--7-7-7-7-|
E-------------0-|---0-0--0-0-0-0-|-------------0-|-0-0--0-0-0-0-|
 keep that motor turning I gotta keep that engine clean I gotta

e-5-------------|----------------|-5-------------|--------------|
B-5-----4-----9-|---9-9--9-9-9-9-|-5-----5-----9-|-9-9--9-9-9-9-|
G-2-----4-----9-|---9-9--9-9-9-9-|-2-----4-----9-|-9-9--9-9-9-9-|
D-2-----4-----9-|---9-9--9-9-9-9-|-2-----4-----9-|-9-9--9-9-9-9-|
A-0-----2-----7-|---7-7--7-7-7-7-|-0-----2-----7-|-7-7--7-7-7-7-|
E-------------0-|---0-0--0-0-0-0-|-------------0-|-0-0--0-0-0-0-|
 keep those burnin'  I got the best you've ever seen 'Cause I'm a

e-----------------|-----------------|-----------------|-----------------|
B-----------------|-----------------|-----------------|-----------------|
G---4---4---4-4---|-4-4-4-4-4---4-4-|---4---4---4-4---|-4-4-4-4-4---4-4-|
D---2h4-4---4-2h4-|-4-4-4-4-2-4-4-4-|---2h4-4---4-2h4-|-4-4-4-4-2h4-4-4-|
A-2-------2-------|-2---------------|-2-------2-------|-2---------------|
E-----------------|-----------------|-----------------|-----------------|
 heatseeker                       chargin' out the sky      Yeah, I'm a

e-----------------|-----------------|-----------------|
B-----------------|-----------------|-----------------|
G---4---4---4-4---|-4-4-4-4-4---5-7-|--7---7--4--5--7-|
D---2h4-4---4-2h4-|-4-4-4-4-2h4-5-7-|--7---7--4--5--7-|
A-2-------2-------|-2-----------3-5-|--5---5--2--3--5-|
E-----------------|-----------------|-----------------|
    heatseeker                       I dont need no
                                                     
e-----------------|--------------------|-----------------|
B-----------------|--------------------|-----------------|
G--7---7--4--5--7-|--4--5--7---4--5--7-|--4--2---2--2--4-|
D--7---7--4--5--7-|--4--5--7---4--5--7-|--4--2---2--2--4-|
A--5---5--2--3--5-|--2--3--5---2--3--5-|--2--0---0--0--2-|
E-----------------|--------------------|-----------------|
 life preserver     I dont need no      one to hose me down

e-----------------|-----------------|-----------------|-----------------|
B-----------------|-----------------|-----------------|-----------------|
G---4---4---4-4---|-4-4-4-4-4---4-4-|---4---4---4-4---|-4-4-4-4-4---4-4-|
D---2h4-4---4-2h4-|-4-4-4-4-2-4-4-4-|---2h4-4---4-2h4-|-4-4-4-4-2h4-4-4-|
A-2-------2-------|-2---------------|-2-------2-------|-2---------------|
E-----------------|-----------------|-----------------|-----------------|
                       to hose me down                  Ooh, the gettin'

e------------------|------------------|------------------|-----------------|
B------------------|------------------|------------------|-----------------|
G-4-----4-----4----|---6-----4--------|-4-----4-----4----|---6-----4-------|
D-2-2-2-2-2-2-2--2-|-2-2-2-2-2-2-2--2-|-2-2-2-2-2-2-2--2-|-2-2-2-2-2-2-2--2|
A------------------|------------------|------------------|-----------------|
E------------------|------------------|------------------|-----------------|
  Ready     to break           gettin' ready       to   go          Get yer

e------------------|------------------|------------------|-----------------|
B------------------|------------------|------------------|-----------------|
G-4-----4-----4----|---6-----4--------|-4-----4-----4----|---6-----4-------|
D-2-2-2-2-2-2-2--2-|-2-2-2-2-2-2-2--2-|-2-2-2-2-2-2-2--2-|-2-2-2-2-2-2-2--2|
A------------------|------------------|------------------|-----------------|
E------------------|------------------|------------------|-----------------|
 shoes off an' shake          get ya head down    an' blow          Ya gotta

e-5-------------|----------------|-5-------------|--------------|
B-5-----4-----9-|---9-9--9-9-9-9-|-5-----5-----9-|-9-9--9-9-9-9-|
G-2-----4-----9-|---9-9--9-9-9-9-|-2-----4-----9-|-9-9--9-9-9-9-|
D-2-----4-----9-|---9-9--9-9-9-9-|-2-----4-----9-|-9-9--9-9-9-9-|
A-0-----2-----7-|---7-7--7-7-7-7-|-0-----2-----7-|-7-7--7-7-7-7-|
E-------------0-|---0-0--0-0-0-0-|-------------0-|-0-0--0-0-0-0-| 
 keep that woman firin, Ya gotta keep that circuit clean, Ya gotta

e-5-------------|----------------|-5-------------|--------------|
B-5-----4-----9-|---9-9--9-9-9-9-|-5-----5-----9-|-9-9--9-9-9-9-|
G-2-----4-----9-|---9-9--9-9-9-9-|-2-----4-----9-|-9-9--9-9-9-9-|
D-2-----4-----9-|---9-9--9-9-9-9-|-2-----4-----9-|-9-9--9-9-9-9-|
A-0-----2-----7-|---7-7--7-7-7-7-|-0-----2-----7-|-7-7--7-7-7-7-|
E-------------0-|---0-0--0-0-0-0-|-------------0-|-0-0--0-0-0-0-|
 make her sound the siren, Ya gotta hear that lady scream, 'Cause I'm a

e-----------------|-----------------|-----------------|-----------------|
B-----------------|-----------------|-----------------|-----------------|
G---4---4---4-4---|-4-4-4-4-4---4-4-|---4---4---4-4---|-4-4-4-4-4---4-4-|
D---2h4-4---4-2h4-|-4-4-4-4-2-4-4-4-|---2h4-4---4-2h4-|-4-4-4-4-2h4-4-4-|
A-2-------2-------|-2---------------|-2-------2-------|-2---------------|
E-----------------|-----------------|-----------------|-----------------|
 heatseeker                          burnin' up the town      Yeah I'm a

e-----------------|-----------------|-----------------|
B-----------------|-----------------|-----------------|
G---4---4---4-4---|-4-4-4-4-4---5-7-|--7---7--4--5--7-|
D---2h4-4---4-2h4-|-4-4-4-4-2h4-5-7-|--7---7--4--5--7-|
A-2-------2-------|-2-----------3-5-|--5---5--2--3--5-|
E-----------------|-----------------|-----------------|
 heatseeker                          I dont need no

e-----------------|--------------------|-----------------|
B-----------------|--------------------|-----------------|
G--7---7--4--5--7-|--4--5--7---4--5--7-|--4--2---2--2--4-|
D--7---7--4--5--7-|--4--5--7---4--5--7-|--4--2---2--2--4-|
A--5---5--2--3--5-|--2--3--5---2--3--5-|--2--0---0--0--2-|
E-----------------|--------------------|-----------------|
 life presever           I dont need no one to hose me down

e-----------------|-----------------|
B-----------------|-----------------|
G---4---4---4-4---|-4-4-4-4-4---4-4-|
D---2h4-4---4-2h4-|-4-4-4-4-2-4-4-4-|
A-2-------2-------|-2---------------|
E-----------------|-----------------|
                     to hose me down

e-----------------|-----------------|-----------------|\
B-----------------|-----------------|-----------------| \
G---4---4---4-4---|-4-4-4-4-4---4-4-|---4---4---4-4---|  \
D---2h4-4---4-2h4-|-4-4-4-4-2-4-4-4-|---2h4-4---4-2h4-|  / do this twice
A-2-------2-------|-2---------------|-2-------2-------| / (I think) put
E-----------------|-----------------|-----------------|/comments if it's
                                     Ah, you got it!     wrong ok? :P

Solo:
      8va-|                          15ma--|
e-------------------------|--------------------------------|
B-------------------0h2h3-|-p2p0-2b3-2b(*3*)---0h2h3-p0h2h-|
G-------*4*---------------|--------------------------------|
D-------------------------|--------------------------------|
A-2--2---------2--2-------|--------------------------------|
E-------------------------|--------------------------------|

                                               8va---------------|
e-------------------------------------|---------------------------|
B-3p0---3p0---3p0---------------------|---------------------10b12-|
G-----2-----2-----2-------------------|-4---4---*4*--/------------|
D-------------------4p2p0-4p2p0-4p2p0-|---------------------------|
A-------------------------------------|---------------------------|
E-------------------------------------|---------------------------|

 8va-----------------------------------------------------|
e------7-10p7-9p7-9p7----7-|------------------------------|
B---10----------------10---|-10p7----7--------------9b10r-|
G--------------------------|------10---9p7--------7-9b10r-|
D--------------------------|---------------9--9~----------|
A--------------------------|------------------------------|
E--------------------------|------------------------------|

 8va-------------------|                      8va-----------------------|
e-----------------------|---------------------|--------------------------|
B-9-9b10-9b10-----------|---------------------|-12--10--9b10r9b10r9-7h9b-|
G-9-9b10-9b10--7--------|---------------------|-13--11--9b10r9b10r9-7h9b-|
D------------------9----|-7-7-7-7-7--9p4\p0-0-|--------------------------|
A---------------------9-|---------------------|--------------------------|
E-----------------------|---------------------|--------------------------|
                                        /\
                                        /
   This slide is a mini tiny slide, if you had any problems with it I dunno.
                                     hold bend---------------------|
 8va----------------------------------------------------------------|
e--------------------12---------|-17----------17--17---17---17---17--|
B-10r9p7h9-9b10-9b10------17b19-|----17b19-17b19-(19)-(19)-(19)-(19)-|
G-10r9p7h9-9b10-9b10------------|------------------------------------|
D-------------------------------|------------------------------------|
A-------------------------------|------------------------------------|
E-------------------------------|------------------------------------|

 8va------------------------|
e----17----17----17----17--\-|
B-17b19-17b19-17b19-17b19--\-|
G----------------------------|
D----------------------------|
A----------------------------|
E----------------------------|

e-----------------|-----------------|-----------------|-----------------|
B-----------------|-----------------|-----------------|-----------------|
G---4---4---4-4---|-4-4-4-4-4---4-4-|---4---4---4-4---|-4-4-4-4-4---4-4-|
D---2h4-4---4-2h4-|-4-4-4-4-2-4-4-4-|---2h4-4---4-2h4-|-4-4-4-4-2h4-4-4-|
A-2-------2-------|-2---------------|-2-------2-------|-2---------------|
E-----------------|-----------------|-----------------|-----------------|
                                                                 Honey!
                               8va------------------------|
e-----------------|------------|------7--------7--------7--|
B-----------------|------------|-10U.b12--10U.b12--10U.b12-|
G---4---4---4-4-4-|------------|---------------------------|
D---2h4-4---4-2-4-|------------|---------------------------|
A-2-------2-----2-|------------|---------------------------|
E-----------------|------------|---------------------------|
                   Here she comes
 8va--------------|
e-------7---17b19~-|
B--10U.b12---------|
G------------------|
D------------------|
A------------------|
E------------------|
              Wanna

e------------------|------------------|------------------|-----------------|
B------------------|------------------|------------------|-----------------|
G-4-----4-----4----|---6-----4--------|-4-----4-----4----|---6-----4-------|
D-2-2-2-2-2-2-2--2-|-2-2-2-2-2-2-2--2-|-2-2-2-2-2-2-2--2-|-2-2-2-2-2-2-2--2|
A------------------|------------------|------------------|-----------------|
E------------------|------------------|------------------|-----------------|
 see you     get up            see the whites of your eyes     'Cause I'm a

e-----------------|-----------------|-----------------|-----------------|
B-----------------|-----------------|-----------------|-----------------|
G---4---4---4-4---|-4-4-4-4-4---4-4-|---4---4---4-4---|-4-4-4-4-4---4-4-|
D---2h4-4---4-2h4-|-4-4-4-4-2-4-4-4-|---2h4-4---4-2h4-|-4-4-4-4-2h4-4-4-|
A-2-------2-------|-2---------------|-2-------2-------|-2---------------|
E-----------------|-----------------|-----------------|-----------------|
  heatseeker                           heatseeker                  Gonna

e------------------|------------------|------------------|-----------------|
B------------------|------------------|------------------|-----------------|
G-4-----4-----4----|---6-----4--------|-4-----4-----4----|---6-----4-------|
D-2-2-2-2-2-2-2--2-|-2-2-2-2-2-2-2--2-|-2-2-2-2-2-2-2--2-|-2-2-2-2-2-2-2--2|
A------------------|------------------|------------------|-----------------|
E------------------|------------------|------------------|-----------------|
 measure     you up              gonna try you   for size      'Cause I'm a

e-----------------|-----------------|-5-------------|--------------|
B-----------------|-----------------|-5-----5-----9-|-9-9--9-9-9-9-|
G---4---4---4-4---|-4-4-4-4-4---4-4-|-2-----4-----9-|-9-9--9-9-9-9-|
D---2h4-4---4-2h4-|-4-4-4-4-2-4-4-4-|-2-----4-----9-|-9-9--9-9-9-9-|
A-2-------2-------|-2---------------|-0-----2-----7-|-7-7--7-7-7-7-|
E-----------------|-----------------|-------------0-|-0-0--0-0-0-0-|
   heatseeker               I gotta  keep that motor turnin' I gotta

e-5-------------|--------------|-5-------------|--------------|
B-5-----5-----9-|-9-9--9-9-9-9-|-5-----5-----9-|-9-9--9-9-9-9-|
G-2-----4-----9-|-9-9--9-9-9-9-|-2-----4-----9-|-9-9--9-9-9-9-|
D-2-----4-----9-|-9-9--9-9-9-9-|-2-----4-----9-|-9-9--9-9-9-9-|
A-0-----2-----7-|-7-7--7-7-7-7-|-0-----2-----7-|-7-7--7-7-7-7-|
E-------------0-|-0-0--0-0-0-0-|-------------0-|-0-0--0-0-0-0-|
 keep that engine clean I gotta keep those tires burnin' I got the best

e-5-------------|--------------|
B-5-----5-----9-|-9-9--9-9-9-9-|
G-2-----4-----9-|-9-9--9-9-9-9-|
D-2-----4-----9-|-9-9--9-9-9-9-|
A-0-----2-----7-|-7-7--7-7-7-7-|
E-------------0-|-0-0--0-0-0-0-|
 you've ever seen  'Cause I'm a

e-----------------|-----------------|-----------------|
B-----------------|-----------------|-----------------|
G---4---4---4-4---|-4-4-4-4-4---5-7-|--7---7--4--5--7-|
D---2h4-4---4-2h4-|-4-4-4-4-2h4-5-7-|--7---7--4--5--7-|
A-2-------2-------|-2-----------3-5-|--5---5--2--3--5-|
E-----------------|-----------------|-----------------|
 heatseeker                          I dont need no

e-----------------|--------------------|-----------------|
B-----------------|--------------------|-----------------|
G--7---7--4--5--7-|--4--5--7---4--5--7-|--4--2---2--2--4-|
D--7---7--4--5--7-|--4--5--7---4--5--7-|--4--2---2--2--4-|
A--5---5--2--3--5-|--2--3--5---2--3--5-|--2--0---0--0--2-|
E-----------------|--------------------|-----------------|
 life presever           I dont need no one to hose me down

 This solo for this isnt tabbed out 
 but I think it is an ad lib solo 
 for all the eight bars
e-----------------|-----------------|-----------------|-----------------|
B-----------------|-----------------|-----------------|-----------------|
G---4---4---4-4---|-4-4-4-4-4---4-4-|---4---4---4-4---|-4-4-4-4-4---4-4-|
D---2h4-4---4-2h4-|-4-4-4-4-2-4-4-4-|---2h4-4---4-2h4-|-4-4-4-4-2h4-4-4-|
A-2-------2-------|-2---------------|-2-------2-------|-2---------------|
E-----------------|-----------------|-----------------|-----------------|
                    Wow!      I'm a    heatseeker              And I'm a

e-----------------|-----------------|-----------------|-----------------|
B-----------------|-----------------|-----------------|-----------------|
G---4---4---4-4---|-4-4-4-4-4---4-4-|---4---4---4-4---|-4-4-4-4-4---4-4-|
D---2h4-4---4-2h4-|-4-4-4-4-2-4-4-4-|---2h4-4---4-2h4-|-4-4-4-4-2h4-4-4-|
A-2-------2-------|-2---------------|-2-------2-------|-2---------------|
E-----------------|-----------------|-----------------|-----------------|
 heatseeker                           heatseeker                   Ow!

Outro solo:

e------19----------19--------------19-|------19--------------19--|
B-22U.b24-----22U.b24----22---22U.b24-|-22U.b24----22---22U.b24--|
G-------------------------------------|--------------------------|
D-------------------------------------|--------------------------|
A-------------------------------------|--------------------------|
E-------------------------------------|--------------------------|

e------------------------|-----------------|
B------------------------|-----------------|
G--4~~~----2~~~----------|-----------------|
D------------------4~~~--|-----------------|
A------------------------|--5b6------2~~~--|
E------------------------|-----------------|



That's it!! Hope u'll enjoy! Rate and put in some comments would be nice :)
Tap to rate this tab
# A B C D E F G H I J K L M N O P Q R S T U V W X Y Z