Song name
# A B C D E F G H I J K L M N O P Q R S T U V W X Y Z

Ac Dc - Deep In The Hole tab

----------------------------------------------------------------------------
                       DEEP IN THE HOLE - ACDC
----------------------------------------------------------------------------

Tabbed By Ryan Boone

intro

e|--------------------------|
B|--------------------------|
G|--------------------------|
D|-9-7--7-5--9-7-5-555------|
A|-7-5--5-3--7-5-3-333------|
E|--------------------------|

part before the chorus(its the end of the intro played a few times.)

e|-----------------------------------|
B|-----------------------------------|
G|-----------------------------------|
D|-9-7-5-555--9-7-5-555--------------|
A|-7-5-3-333--7-5-3-333--------------|
E|-----------------------------------|


chorus

  deep in  deep in   deep in the hole!
e|-3---2---3----2----3----2--3-------------|
B|-3---3---3----3----3----3--3-------------|
G|-0---2---0----2----0----2--0---2---------|
D|-0---0---0----0----0----0--0---2---------|
A|-------------------------------0---------|
E|-3-------3---------3-------3-------------|


then Malcom starts playing to intro and angus plays this 
the first time the intro riff is played, the plays along with malcom
the second time

e|-0-0-0-0-0-0-0-0-0-0-0-0-0-0-0-0-0-0-0-0-0------|
B|-5-5-5-5-5-5-5-5-5-5-5-5-5-5-5-5-5-5-5-5-5/20---|
G|------------------------------------------------|
D|------------------------------------------------|
A|------------------------------------------------|
E|------------------------------------------------|

play all these riff throughout the song.

Solo

e|-------------------------------------------------------------------------|
B|------------------------------------------------10^~~--------------------|
G|-7/9-99\7---7-6~~-------------7/9-99\7---7-6~~---------------------------|
D|-----99---7-7-7~~-7---------------99---7-7-7~~---------------------------|
A|--------------------7----------------------------------------------------|
E|----------------------12\0-----------------------------------------------|

e|-------------------------------------------------------------------------|
B|-------------------------------------------------------------------------|
G|-7/9-99\7----------------------------------------------------------------|
D|-----99---7^-5-----------------------------------------------------------|
A|---------------7~~7~~\0---5--5--5>7~~------------------------------------|
E|-------------------------------------------------------------------------|

e|---------12----------------------12--------------------------------------|
B|------12----15-12-15-12-------12-----15-12-15-12--------14^14^14^\-------|
G|--14^---------------------14^--------------------14-12--14^14^14^\12-----|
D|---------------------------------------------------------------------14~~|
A|-------------------------------------------------------------------------|
E|-------------------------------------------------------------------------|



during the solo malcom plays the intro then chorus and thats the end of the song.
Tap to rate this tab
# A B C D E F G H I J K L M N O P Q R S T U V W X Y Z