Song name
# A B C D E F G H I J K L M N O P Q R S T U V W X Y Z

Ac Dc - Twos Up tab

AC DC - Two`s up
(from 1988`s "Blow your video" album)
Tab by Voytazz
Intro, & Chorus
I must send it becouse the intro & chorus in full tab is wrong.
Thats The Way Ang' and Mal play it:

E---------------------------------------------|
B------4-3--4-4---3----------4-3--4-4---3-----|
G---5--3-3--3-3-3---------3--3-3--3-3-3-------|
D---5---------------------3-------------------|
A---3---------------------1-------------------|
E---------------------------------------------|

E------------------------------------|
B----4-3-------4-3------4-3-----4-3--|
G----3-3-------3-3------3-3-----3-3--|
D--3--------5--------6-------8-------|
A--3--------5--------6-------8-------|
E--1--------3--------4-------6-------|

Check for Voytazz tabs.
Tap to rate this tab
# A B C D E F G H I J K L M N O P Q R S T U V W X Y Z