Song name
# A B C D E F G H I J K L M N O P Q R S T U V W X Y Z

Ac Dc - Some Sin For Nuthin tab

Tuning: Standard


e-------------------  ---------3------|
B-------------------  ---3--5--3--5~~-|
G---7--9--12--9~~---  ---2--4-----4~~-|
D---7--9--12--------  ----------------|
A-------------------  ----------------|
E-------------------  ----------------|

e---------------------------------------------------------------------|
B---------------------------------------------------------------------|
G---7----9-----------------------7-x-7---9----------------------------|
D---7----9-------5-----7---------7-x-7---9------5------7------9-------|(\)
A---5----7-------5-----7---------5-x-5---7------5------7------9-------|(\)
E--------------0-3---0-5---------------------0--3---0--5---0--7-------|(\)

e---------------------------------------------------------------------------------|
B---3------------3---------------3---3----------3---------------------------------|
G---2------------0-----2---------2---2----------0------2------4-------------------|(\)
D---0----2-------0-----2---------0---0---2------0------2------4-------------------|(\)
A--------2-------------0-----------------2-------------0------2-------------------|(\)
E--------0-----0-3---0-------------------0---0--3---0------0----------------------|
    e-----------------------------------------------------------------------------|
B---------------3-------------------------3-------------------------3-------------|
G---------------2-------------------------2-------------------------2-------------|
D---2-----------0------------2------------0------------2------------0-------------|
A---2------------------------2-------------------------2--------------------------|
E---0------------------------0-------------------------0--------------------------|

-------------|----------------------------------------------------------------|
-------------|----------------------------------------------------------------|
---5-----4---|-------7---9---------------------7--7--9------------------------|
---5-----4---|-------7---9------5------7-------7--7--9-----5-----7-----9------|
---3-----2---|-----x-5---7------5------7-------5--5--7-----5-----7-----9------|
-------------|---------------0--3---0--5----------------0--3--0--5--0--7------|

e------------------|
B------------------|
G---7--9--12--9~~~-|
D---7--9--12--9~~~-|
A------------------|
E------------------|


Notation used
x-muted note
~-vibrato
(/)-slide down (a couple seconds later)

Enjoy

submitted: 2/12/05
Tap to rate this tab
# A B C D E F G H I J K L M N O P Q R S T U V W X Y Z