Song name
# A B C D E F G H I J K L M N O P Q R S T U V W X Y Z

Ac Dc - Love At First Feel tab

tuning:standard
tabbed by:a crazy teenage rock and roll fan
artist:acdc
song title:love at first feel
album:dirty deeds done dirt cheap
written by:angus young, malcom young, bon scott
year:1976

intro
E|-------------------------------------------------------|
B|---------------3------------------3------------------3-|
G|-2-------------2----2-------------2----2--------2----2-|
D|-2--------5----0----2--------5----0----2--------2----0-|
A|-0--------5---------0--------5---------0--------0------|
E|----------3------------------3-------------------------|

verse.
E|-----------------------------------|
B|-----------------------------------|
G|---9-9-----9-9-----7-7-------7---7-|
D|---9-9-----9-9-----7-7-------7---7-|
A|-7-----7-7-----5-5-----5-5-5---5---|
E|-0-----0-0-------------------------|

chorus 
the chorus rifff is exactly the same as the intro riff so there
is no point on wasting space for it here.

then play the verse and chorus again.

guitar solo.
for the solo, rythm guitar will play the verse and then the chorus

solo.
E|-------------------------------------------------------------|
B|-------------------------------------------------------------|
G|-------------------------------------------------------------|
D|-------------------------------------------------------------|
A|-0h2h3-0h2h3-0h2h3-0h2h3-0h2h3-0h2h3-0h2h3-0h2h3-0h3h5-0h3h5-|
E|-------------------------------------------------------------|

E|-------------------------------------------------------------|
B|-------------------------------------------------------------|
G|-------------------------------------------------------------|
D|-------------------------------------------------------------|
A|-0h3h5-0h3h5-0h3h5-0h3h5-0h3h5-0h3h5-0h5h7-0h5h7-0h5h7-0h5h7-|
E|-------------------------------------------------------------|

E|-------------------------------------------------------------|
B|-------------------------------------------------------------|
G|-------------------------------------------------------------|
D|-------------------------------------------------------------|
A|-0h5h7-0h5h7-0h5h7-0h5h7-0h7h9-0h7h9-0h7h9-0h7h9-0h7h9-0h7h9-|
E|-------------------------------------------------------------|

E|-------------12-12-11b12-11b12-11b12\-16b17-15p12h17===12-|
B|----------------------------------------------------------|
G|----------------------------------------------------------|
D|----------------------------------------------------------|
A|-0h7h9-0h7h9----------------------------------------------|
E|----------------------------------------------------------|

E|------------------------------------------------------|
B|-12-10-10-12-10-8-8-8---12p10h12p10-11p9h11p9-9p7h9p7-|
G|------------------------------------------------------|
D|------------------------------------------------------|
A|------------------------------------------------------|
E|------------------------------------------------------|

E|---------------------17-17---17-17-17---17-17-17---17-17-|
B|-7p5h7p5-5p3h5p3-2-0-------------------------------------|
G|---------------------------------------------------------|
D|---------------------------------------------------------|
A|---------------------------------------------------------|
E|---------------------------------------------------------|

then just play the chorus out.
Tap to rate this tab
# A B C D E F G H I J K L M N O P Q R S T U V W X Y Z