Song name
# A B C D E F G H I J K L M N O P Q R S T U V W X Y Z

Ac Dc - Night Of The Long Knives tab

night of the long knives by ACDC
tuning is E,A,D,G,B,e 

intro

e-3----3------------3----3----------|
B-3----3-----3------3----3---3------|
G-0----0-----2------0----0---2----2-|
D-0----0-----0------0----0---0----2-|
A---------------------------------0-|
E-3----3------------3----3----------|

e-3---3--3------------3--3--3----|
B-3---3--3---3--------3--3--3--3-|
G-0---0--0---2---2----0--0--0--2-|
D-0---0--0---0---2----0--0--0--0-|
A----------------0---------------|
E-3---3--3------------3--3--3----|

riff before verses

e-----------------------------------------------|
B--------------3--2-----------------------------|
G--------------4--2-----------------------------|
D----------2--------------------2---0-----------|
A-2--------2--------------------2----4p2p0------|
E-0--2h3h4-------------0--2h3h4-----------3p2p0-| x2 

verses 

e---------------|
B---------------| 
G-0----------5--|
D-0-----3----5--|
A-------3----3--|  4X 
E-3-----1-------|

e---------------|
B---------------|
G------------7--|
D-7-----5----7--| 
A-7-----5----5--|  4X 
E-5-----3-------|

choruses 

e-3----3----2-----|
B-3----3----3-----|
G-0----0----2---2-|
D-0----0----0---2-|
A---------------0-|
E-3----3----------|

e-3----3-3--2-----|
B-3----3-3--3-----|
G-0----0-0--2---2-|
D-0----0-0--0---2-|
A---------------0-| x2
E-3----3-3--------|

e-3----3-3--2-----|
B-3----3-3--3-----|
G-0----0-0--2-----|
D-0----0-0--0-----|
A-----------------|
E-3----3-3--------|

before solo 

e--------------3--2---------------------------|
B--------------3--3---------------------------|
G-2--------2------------------2---0-----------|
D-2--------2---------2-------------4p2p0------|
A-0--2h3h4-----------0--2h3h4-----------3p2p0-|
E---------------------------------------------|

e-----------------------------------------------|
B--------------3--2-----------------------------|
G--------------4--2-----------------------------|
D----------2--------------------2---0-----------|
A-2--------2--------------------2----4p2p0------|
E-0--2h3h4-------------0--2h3h4-----------3p2p0-|

solo

e----------------------------------|--------------------------------------|
B----------------------------------|-6^8----8--6-5------------------------|
G----------------------------------|----------7----7p5--------------------|
D-5-----8---5--5---3---5^7---5-----|------------------8p7-5--3--3---3-3\\\|
A---8-------------------------8~~~-|--------------------------------------|
E----------------------------------|--------------------------------------|

e-----------------------------|---------------------------------------|
B-----------------------------|-8^10---8-10----10--10--8-9-10--8-9-10-|
G-5-5^7-----------------------|----------------------9----------------|
D---------7~~~5---------------|---------------------------------------|
A---------------7-6-5---------|---------------------------------------|
E---------------------8-8//-/-|---------------------------------------|

e----8-----------------------|
B-10---10-8--8---------------|
G----------9---9p7-5---------|
D----------------------5^7~~~|
A----------------------------|
E----------------------------|

legend: 

~ vibrato
h hammer on 
p pull off 
b bend
/ slide down 
\ slide up

Tap to rate this tab
# A B C D E F G H I J K L M N O P Q R S T U V W X Y Z